» » »

Scatterd Tabs (ver.1)

Artists:  A B C D E F G H I J K L M N O P Q R S T U V W X Y Z # 

Scatterd Tabs (ver.1)

Green Day
Rating:
0/5 (0 votes)

Hard to play? Try these video lessons and learn fast.
                intro/bridge

e|-----------------------------|-------------|
B|-----------------------------|-------------|
G|-4--4--4-4-4-4-0-------------|-4-4-4-4-4-4-|
D|-4--4--4-4-4-4-0-7-6-2-2-2-2-|-4-4-4-4-4-4-|
A|-2--2--2-2-2-2-0-7-6-2-2-2-2-|-2-2-2-2-2-2-|
E|-----------------5-4-0-0-0-0-|-------------|

verse

e|-----------------------------------------------------------------|
B|-----------------------------------------------------------------|
G|-----------------------------------------------------------------|
D|-2-2-2-2-2-2-2-2-6-6-6-6-6-6-6-6-7-7-7-7-7-7-7-7-9-9-9-9-9-9-9-9-|
A|-2-2-2-2-2-2-2-2-6-6-6-6-6-6-6-6-7-7-7-7-7-7-7-7-9-9-9-9-9-9-9-9-|
E|-0-0-0-0-0-0-0-0-4-4-4-4-4-4-4-4-5-5-5-5-5-5-5-5-7-7-7-7-7-7-7-7-|

chorus

e|-------------------------------------------------------------|
B|-------------------------------------------------------------|
G|-6-6-6-6-6-6-9-9-9-9-9-9-------------------------------------|
D|-6-6-6-6-6-6-9-9-9-9-9-9-9-9-9-9-9-9-7-7-7-7-7-7-4-4-4-4-4-4-|
A|-4-4-4-4-4-4-7-7-7-7-7-7-9-9-9-9-9-9-7-7-7-7-7-7-4-4-4-4-4-4-|
E|-------------------------7-7-7-7-7-7-5-5-5-5-5-5-2-2-2-2-2-2-|

e|----------------------------------|
B|----------------------------------|
G|-------------9--9-9--9--9-9-9-9-9-|
D|-7-7-7-7-7-7-9--9-9--9--9-9-9-9-9-|
A|-7-7-7-7-7-7-7--7-7--7--7-7-7-7-7-|
E|-5-5-5-5-5-5----------------------|

lyrics

i've got some scattered pictures lying on my bedroom floor
reminds me of the times we shared
makes me wish that you were here
now it seems i've forgotten my purpose in this life
all the songs have been erased

i guess i've learned from my mistakes
open the past and present now and we are there
story to tell and i am listening
open the past and present and the future too
it's all i've got and i'm giving it up to you

loose ends tied in knots leaving a lump down in my throat
gagging on a souvenir lodged to fill another year
drag it on and on until my skin is ripped to shreds
leaving my self wide open living out a sacrifice
if you got no one and i've got no place to go
would it be alright? could it be alright?
            
Hard to play? Try these video lessons and learn fast. | Correct




comments powered by Disqus
↑ Back to top | Tablatures and chords are parodies/interpretations of the original songs. You may use it for private study, scholarship, research or language learning purposes only