» » »

Green Day, Road To Acceptance 2 Tabs

Artists:  A B C D E F G H I J K L M N O P Q R S T U V W X Y Z # 

Road To Acceptance 2 Tabs

(ver. 2)
Green Day Tabs
 Rating:
4/5 (4 votes)
    Road To Acceptance lessons Tabs too difficult? Try these video lessons and learn fast

WWW.AZCHORDS.COM | Green Day Tabs - Road To Acceptance Tabs (ver. 2)


                Road To Acceptance
Green Day
Tuning:normal

Another awesome Green Day song from their first album, complete with song structure too :oP. Enjoy!

Intro
|-----------------|-------------------|-----------------|------------------------|
|-7-7-7-8-8-8-8-8-|10-10-10-8-8-8-8-8-|-7-7-7-8-8-8-8-8-|10-10-10-10-10-10-10-10-|
|-7-7-7-7-7-7-7-7-|-7--7--7-7-7-7-7-7-|-7-7-7-7-7-7-7-7-|-7--7--7--7--7--7--7--7-|
|-----------------|-------------------|-----------------|------------------------|
|-----------------|-------------------|-----------------|------------------------|
|-----------------|-------------------|-----------------|------------------------|

|------------------------|------------------------|
|10-10-10-10-10-10-10-10-|10-10-10-10-10-10-10-10-|
|-7--7--7--7--7--7--7--7-|-7--7--7--7--7--7--7--7-|
|------------------------|------------------------|
|------------------------|------------------------|
|------------------------|------------------------|

Verse 1
|-------------------|------------------|
|-------------------|------------------|
|---0-------0-------|---0-------0------|
|-4-----5-----5-----|-7-----5-----5----|
|-5-----5-----5--0--|-5-----5-----5--0-|
|-------------------|------------------|

|------------------------|-----------------|-----------------|
|------------------------|-----------------|-----------------|
|------0---------0-------|-7-7-7-7-7-7-7-7-|-7-7-7-7-7-7-7---|
|---4-------5-------5----|-7-7-7-7-7-7-7-7-|-7-7-7-7-7-7-7---|
|---5-------5-------5----|-5-5-5-5-5-5-5-5-|-5-5-5-5-5-5-5-0-|
|------------------------|-----------------|-----------------|

Bridge
  B5                              A5
|--------------|-----------------|-----------------|-----------------|
|--------------|-----------------|-----------------|-----------------|
|-4--4--4-4--4-|-4-4-4-4-4-4-4-4-|-2-2-2-2-2-2-2-2-|-2-2-2-2-2-2-2-2-|
|-4--4--4-4--4-|-4-4-4-4-4-4-4-4-|-2-2-2-2-2-2-2-2-|-2-2-2-2-2-2-2-2-|
|-2--2--2-2--2-|-2-2-2-2-2-2-2-2-|-0-0-0-0-0-0-0-0-|-0-0-0-0-0-0-0-0-|
|--------------|-----------------|-----------------|-----------------|
  feel for______got______ten      Feel     like      rot_____ting
 F#5    D5     A5                   F#5    D5     A5
|----------------|-----------------|----------------|-----------------|
|----------------|-----------------|----------------|-----------------|
|-------7--7-7---|-----------------|-------7--7-7---|-----------------|
|-4--4--7--7-7-7-|-7-7--7--7-7-7-7-|-4--4--7--7-7-7-|-7-7--7--7-7-7-7-|
|-4--4--5--5-5-7-|-7-7--7--7-7-7-7-|-4--4--5--5-5-7-|-7-7--7--7-7-7-7-|
|-2--2---------5-|-5-5--5--5-5-5-5-|-2--2---------5-|-5-5--5--5-5-5-5-|
Do you feel the same?               Do you feel the same?
  B5                              A5
|--------------|-----------------|-----------------|-----------------|
|--------------|-----------------|-----------------|-----------------|
|-4--4--4-4--4-|-4-4-4-4-4-4-4-4-|-2-2-2-2-2-2-2-2-|-2-2-2-2-2-2-2-2-|
|-4--4--4-4--4-|-4-4-4-4-4-4-4-4-|-2-2-2-2-2-2-2-2-|-2-2-2-2-2-2-2-2-|
|-2--2--2-2--2-|-2-2-2-2-2-2-2-2-|-0-0-0-0-0-0-0-0-|-0-0-0-0-0-0-0-0-|
|--------------|-----------------|-----------------|-----------------|
  Ad_____o____les_____cence       Just    can't      make   sense
 F#5    D5     A5                   F#5    D5     A5
|----------------|-----------------|----------------|-----------------|
|----------------|-----------------|----------------|-----------------|
|-------7--7-7---|-----------------|-------7--7-7---|-----------------|
|-4--4--7--7-7-7-|-7-7--7--7-7-7-7-|-4--4--7--7-7-7-|-7-7--7--7-7-7-7-|
|-4--4--5--5-5-7-|-7-7--7--7-7-7-7-|-4--4--5--5-5-7-|-7-7--7--7-7-7-7-|
|-2--2---------5-|-5-5--5--5-5-5-5-|-2--2---------5-|-5-5--5--5-5-5-5-|
 It's calling my name               It's calling my name

Pre-Chorus
 D5                              C5
|--------------|----------------|--------------|----------------|
|--------------|----------------|--------------|----------------|
|-7--7--7-7--7-|-7-7-7-7-7-7--7-|-5--5--5-5--5-|-5-5-5-5-5-5--5-|
|-7--7--7-7--7-|-7-7-7-7-7-7--7-|-5--5--5-5--5-|-5-5-5-5-5-5--5-|
|-5--5--5-5--5-|-5-5-5-5-5-5--5-|-3--3--3-3--3-|-3-3-3-3-3-3--3-|
|--------------|----------------|--------------|----------------|
              I take a look around    And all the things I've found
 G5                              D5
|--------------|----------------|---------------|----------------|
|--------------|----------------|---------------|----------------|
|--------------|----------------|-7--7--7-7-7-7-|-7-7-7-7-7-7--7-|
|-5--5--5-5--5-|-5-5-5-5-5-5--5-|-7--7--7-7-7-7-|-7-7-7-7-7-7--7-|
|-5--5--5-5--5-|-5-5-5-5-5-5--5-|-5--5--5-5-5-5-|-5-5-5-5-5-5--5-|
|-3--3--3-3--3-|-3-3-3-3-3-3--3-|---------------|----------------|
              I call it blind hatred
 D5                              C5
|--------------|----------------|--------------|----------------|
|--------------|----------------|--------------|----------------|
|-7--7--7-7--7-|-7-7-7-7-7-7--7-|-5--5--5-5--5-|-5-5-5-5-5-5--5-|
|-7--7--7-7--7-|-7-7-7-7-7-7--7-|-5--5--5-5--5-|-5-5-5-5-5-5--5-|
|-5--5--5-5--5-|-5-5-5-5-5-5--5-|-3--3--3-3--3-|-3-3-3-3-3-3--3-|
|--------------|----------------|--------------|----------------|
          If you'd stop a while         And maybe if you'd smile
 G5                              D5
|--------------|----------------|----------------|-----------------|
|--------------|----------------|----------------|-----------------|
|--------------|----------------|-7--7-7-5-5-5-5-|-7-7--7--7-7-7-7-|
|-5--5--5-5--5-|-5-5-5-5-5-5--5-|-7--7-7-5-5-5-5-|-7-7--7--7-7-7-7-|
|-5--5--5-5--5-|-5-5-5-5-5-5--5-|-5--5-5-3-3-3-3-|-5-5--5--5-5-5-5-|
|-3--3--3-3--3-|-3-3-3-3-3-3--3-|----------------|-----------------|
         You would realize that  We're all the same            It's

Chorus
 C5           G5                    C5           G5                
|----------------|-----------------|----------------|-----------------|
|----------------|-----------------|----------------|-----------------|
|-5--5-5-5-5-5---|-----------------|-5--5-5-5-5-5---|-----------------|
|-5--5-5-5-5-5-5-|-5-5--5--5-5-5-5-|-5--5-5-5-5-5-5-|-5-5--5--5-5-5-5-|
|-3--3-3-3-3-3-5-|-5-5--5--5-5-5-5-|-3--3-3-3-3-3-5-|-5-5--5--5-5-5-5-|
|--------------3-|-3-3--3--3-3-3-3-|--------------3-|-3-3--3--3-3-3-3-|
just like our brain             When it goes insane              We
 C5           G5 *last time go to outro
|----------------|-----------------|
|----------------|-----------------|
|-5--5-5-5-5-5---|-----------------|
|-5--5-5-5-5-5-5-|- - - - - - -----|
|-3--3-3-3-3-3-5-|- - - - - - -----|
|--------------3-|- - - - - - -----|
 feel the same pain

Interlude  (chords implied by bass)
|-------|-------|-------|-------|-------|-------|-------|-------|
|-------|-------|-------|-------|-------|-------|-------|-------|
|-------|-------|-------|-------|-------|-------|-------|-------|
|-4-----|-------|-------|-------|-------|-------|-------|-------|
|-5-----|-(5)---|-(5)---|-(5)---|-(5)---|-(5)---|-(5)---|-(5)---|
|-------|-------|-------|-------|-------|-------|-------|-------|

|-14----|-(14)--|-(14)--|-(14)--|-(14)--|-(14)--|-(14)--|-(14)--|
|-------|-------|-------|-------|-------|-------|-------|-------|
|-------|-------|-------|-------|-------|-------|-------|-------|
|-------|-------|-------|-------|-------|-------|-------|-------|
|-(5)---|-(5)---|-(5)---|-(5)---|-(5)---|-(5)---|-(5)---|-(5)---|
|-------|-------|-------|-------|-------|-------|-------|-------|

Pre-Chorus (bass only)
D                C
I take a look around
C                          G
And all the things I've found
G                D  
I call it blind hatred
D                C
If you'd stop a while
C                        G
And maybe if you'd smile
 G                                  D5
|-------------|-------------------|----------------|----------------|
|-------------|-------------------|----------------|----------------|
|-------------|----pick slide-----|-7--7-7\5-5-5-5-|-7-7-7--7-7-7-7-|
|-------------|-------------------|-7--7-7\5-5-5-5-|-7-7-7--7-7-7-7-|
|-(5)---------|-x\x\x\x\x\x\x\x\x-|-5--5-5\3-3-3-3-|-5-5-5--5-5-5-5-|
|-------------|-x\x\x\x\x\x\x\x\x-|----------------|----------------|
               You would realize that We're all the same    It's (to chorus)
Outro (from chorus)
 G5                C5    B5 G5 A  C5    B5 G5 A  C5    B5 G5 
|-----------------|--------------|--------------|-------------|
|-----------------|--------------|--------------|-------------|
|-----------------|-5-5-5-4----2-|-5-5-5-4----2-|-5-5-5-4-----|
|-5-5--5--5-5-5-5-|-5-5-5-4--5-2-|-5-5-5-4--5-2-|-5-5-5-4--5--|
|-5-5--5--5-5-5-5-|-3-3-3-2--5-0-|-3-3-3-2--5-0-|-3-3-3-2--5--|
|-3-3--3--3-3-3-3-|----------3---|----------3---|----------3--|
 
|--------------|--------------|-------------|
|--------------|--------------|-3-----------|
|--------------|--------------|-2-----------|
|--------------|--------------|-0-----------|
|--------------|--------------|-------------|
|--------------|--------------|-------------|
  delay effect(next 2 bars)

STRUCTURE
intro
verse 1
bridge
pre-chorus
chorus
verse
verse 2
bridge
pre-chorus
chorus
interlude
pre-chorus (bass only)
chorus
outro

LYRICS

verse 1
I always waste my time just wondering
What the next man thinks of me
I'll never do exactly what I want
And I'll sculpt my life for your acceptance

verse1
I always waste my time just wondering
What the next man thinks of me
I'll never do exactly what I want
And I'll sculpt my life for your acceptance

bridge
And I feel forgotten
Feel like rotting
(Do you feel the same?)
(Do you feel the same?)
Adolescence
Just can't make sense
(It's calling my name)
(It's calling my name)

pre-chorus
I take a look around
And all the things I've found
I call it blind hatred
If you'd stop a while
And maybe if you'd smile
You would realize that
We're all the same

chorus
It's just like our brain
When it goes insane
We feel the same pain

verse 2
All my life I've seemed to have this need
I think at times it even turns to greed
We all want to join some family
We'll even sacrifice a moral changing

And I feel forgotten
Feel like rotting
(Do you feel the same?)
(Do you feel the same?)
Adolescence
Just can't make sense
(It's calling my name)
(It's calling my name)

I take a look around
And all the things I've found
I call it blind hatred
If you'd stop a while
And maybe if you'd smile
You would realize that
We're all the same

It's just like our brain
When it goes insane
We feel the same pain

I take a look around
And all the things I've found
I call it blind hatred
If you'd stop a while
And maybe if you'd smile
You would realize that
We're all the same

It's just like our brain
When it goes insane
We feel the same pain
            
Submit corrections

↑ Back to top | Green Day Tabs for Road To Acceptance. Lyrics for acoustic guitar and electric guitar. Tablatures and chords are parodies/interpretations of the original songs. You may use it for private study, scholarship, research or language learning purposes only