» » »

Green Day, Prosthetic Head  Tabs (ver.1)

Artists:  A B C D E F G H I J K L M N O P Q R S T U V W X Y Z # 

Prosthetic Head  Tabs (ver.1)

Green Day Tabs
 Rating:
4/5 (4 votes)
Prosthetic Head  lessons Tabs too difficult? Try these video lessons and learn fast
                PROPS GO TO: Corey Ayd

Intro

---------------------------------------------------------
---------------------------------------------------------
--9-9-9------------------------------9-9-9---------------
--9-9-9-9--9-9-9--12-12-12--7-7-7-7--9-9-9-9-9-9-9-(12)--
--7-7-7-9--9-9-9--12-12-12--7-7-7-7--7-7-7-9-9-9-9-(12)--
--------7--7-7-7--10-10-10--5-5-5-5--------7-7-7-7-(10)--

Chorus

---------------------
---------------------
---------------------
-8/9-9-9-9-9-9-9-9---
-8/9-9-9-9-9-9-9-9-7-
-6/7-7-7-7-7-7-7-7---


Bridge

---------------------------------------------------------
---------------------------------------------------------
-------9-9-x---------------------------------------------
-9-9-x-9-9-x-7-7-x-4-4-4-4--9-9-x-7-7-x-12-12-x-7-7-7-7--
-9-9-x-7-7-x-7-7-x-4-4-4-4--9-9-x-7-7-x-12-12-x-7-7-7-7--
-7-7-x-------5-5-x-2-2-2-2--7-7-x-5-5-x-10-10-x-5-5-5-5--

play 4 times

---------------------             ---12\------------
---------------------             ---15\------------
---------------------             ------------------
-8/9-9-9-9-9-9-9-9--- play 6 times------------------ 
-8/9-9-9-9-9-9-9-9---             ------------------
-6/7-7-7-7-7-7-7-7---             ------------------


End
 
---------------------
---------------------
---------------------
---------------------
-12\-----------------
-14\-----------------


Lyrics

I see you, down in the front line
Such a sight for sore eyes			(Verse 1)
You're a suicide makeover

Plastic eyes, lookin' through a numbskull
Self-effaced, what's his face			(Verse 2)
You erased yourself so shut up
You don't let up

You have a growth that must be treated 
Like a severed severe pain in the neck
You can smell it but you can't see it		(Pre-Chorus)
No explanation identified 'cause...

You don't know
You don't say					(Chorus)
And you got no reply

Hey you, where did you come from? 
Got a head full of lead				(Verse 3)
You're a inbred bastard son

All dressed up
Red blooded, A mannequin 
Do or die, no reply				(Verse 4)
Don't deny that you're synthetic
You're pathetic


Order

Intro
Verse 1
Verse 2
Pre-Chorus
Chorus
Verse 3
Verse 4
Pre-Chorus
Chorus x2
Bridge
Verse 1 (pick slide at end)
Chorus x2
End
            
Submit corrections

comments powered by Disqus
↑ Back to top | Green Day Tabs for Prosthetic Head . Lyrics for acoustic guitar and electric guitar. Tablatures and chords are parodies/interpretations of the original songs. You may use it for private study, scholarship, research or language learning purposes only