» » »

Paper Lanterns Tabs (ver.1)

Artists:  A B C D E F G H I J K L M N O P Q R S T U V W X Y Z # 

Paper Lanterns Tabs (ver.1)

Green Day
Rating:
0/5 (0 votes)

Hard to play? Try these video lessons and learn fast.
                Green Day:Papar Lanterns
Joey .P.

Guitar tune 1/2 step down
Intro:

Gb|----------9-9----|
Db|--9-9-7-7-9-9-7--|
Ab|--9-9-7-7-7-7-7--|
Eb|--7-7-5-5-----5--| repeat 4 times (Try figuing out the strumming
pattern)


Gb|--4--4--4--4--------------------------4--4--4--4-|
Db|--4--4--4--4--4--4--4--4--2--2--2--2--4--4--4--4-|
Ab|--2--2--2--2--4--4--4--4--2--2--2--2--2--2--2--2-|
Eb|--------------2--2--2--2--0--0--0--0-------------|
now i rest my head from such an endless dreary time


Gb|--4--4--4--4--2--2--2--2--------------4--4--4--4-|
Db|--4--4--4--4--2--2--2--2--2--2--2--2--4--4--4--4-|
Ab|--2--2--2--2--0--0--0--0--2--2--2--2--2--2--2--2-|
Eb|--------------------------0--0--0--0-------------|
a time of hopes and happiness that had you on my mind

those days are gone and now it seems as if i'll get some rest
but now and then i'll see you again and it puts my heart to test

Chorus:

Gb|-------------------------4--4--4--4--4--4--4--4--|
Db|-2--2--2--2--4--4--4--4--4--4--4--4--4--4--4--4--|
Ab|-2--2--2--2--4--4--4--4--2--2--2--2--2--2--2--2--|
Eb|-0--0--0--0--2--2--2--2--------------------------|
so when are all my problems going to end?

Gb|--------------------------4--4--4--4--------------2--2--2--2--2----|
Db|--2--2--2--2--4--4--4--4--4--4--4--4--6--6--6--6--2--2--2--2--2--2-|
Ab|--2--2--2--2--4--4--4--4--2--2--2--2--6--6--6--6--0--0--0--0--0--2-|
Eb|--0--0--0--0--2--2--2--2--------------4--4--4--4-----------------0-|
i'm understanding now that we are only friends, to this day i'm asking
why


Gb|-------------------------------9--9-----|
Db|-------------------9--9--7--7--9--9--7--|
Ab|-------------------9--9--7--7--7--7--7--|
Eb|-------------------7--7--5--5--------5--|
i still think about you

Song Structure:

Intro (4x)
Verse 1
Chorus
intro riff(2x)
Verse 2
Chorus
intro riff (2x)
Solo
Chorus
intro rif till end!
            
Hard to play? Try these video lessons and learn fast. | Correct




comments powered by Disqus
↑ Back to top | Tablatures and chords are parodies/interpretations of the original songs. You may use it for private study, scholarship, research or language learning purposes only