» » »

Green Day, No One Knows Tabs (ver.1)

Artists:  A B C D E F G H I J K L M N O P Q R S T U V W X Y Z # 

No One Knows Tabs (ver.1)

Green Day Tabs
 Rating:
4/5 (4 votes)
No One Knows lessons Tabs too difficult? Try these video lessons and learn fast
                green day
no one knows
Intro
e|--------------------------------------|
B|--------------------------------------|
G|---0--0-----0-2-0-0-------------------|
D|--0--0-0---0----------4--4-----0--0---|
A|-2--2---2-1--1---1---5--5-5---0--0-0--|
E|--------------------5--5---5-4--4---4-|

e|---------------------------------------------------------------|
B|---------------------------------------------------------------|
G|--------------------------------------7--7-7-------------------|
D|-5-------------------------5---5--5--7--7------7---7--7--7-7---|
A|--7-4-5-44-2-4-2-0-------5----5-----5--5--5--7---7--7---7------|
E|-------------------0-2-3----3---3-----------5---5--5---5--5-97-|

e|--------------------------------------------------------------------------------------|
B|--------------------------------------------------------------------------------------|
G|-----------7--7-7---------------------------7--7-7----------7--7-7-----------7--7-7---|
D|---5--5-5-7--7-----7--7--7--7-7-----5--5-5-7--7-----5--5-5-7--7-----5--5-5--7--7----7-|
A|--5--5---5--5--5--7--7--7--7-------5--5---5--5--5--5--5---5--5--5--5--5----5--5--5--7-|
E|-3--3--3---------5--5--5--5--5-97-3--3--3---------3--3--3---------3--3--3-----------5-|

Verse
e|--------------------------------------------------------------------|
B|--------------------------------------------------------------------|
G|------------------7777777777777777----------------------------------|
D|-5555555555555555-7777777777777777-77777777777777777777777777777777-|
A|-5555555555555555-5555555555555555-77777777777777777777777777777777-|
E|-3333333333333333------------------55555555555555555555555555555555-|

Chorus
e|-----------------------------------------------------------------------|
B|-----------------------------------------------------------------------|
G|-----------77777777--------------------------77777777------------------|
D|-55555555--77777777-777777777777777-55555555-77777777-7777777777777777-|
A|-55555555--55555555-777777777777777-55555555-55555555-7777777777777777-|
E|-33333333-----------555555555555555-33333333----------5555555555555555-|

e|---------------------------------------------------------|
B|---------------------------------------------------------|
G|----------77777777----------77777777----------77777777---|
D|-55555555-77777777-55555555-77777777-55555555-77777777-7-|
A|-55555555-55555555-55555555-55555555-55555555-55555555-7-|
E|-33333333----------33333333----------33333333----------5-|

Outro
e|-----------------------------------------2~-|
B|-----------------------------------------3~-|
G|------0--------0----------0----2-0---0---2~-|
D|---0--------0----0-----0-----------------0~-|
A|-2-------2---------2-1------1------1--------|
E|--------------------------------------------|
            
Submit corrections

comments powered by Disqus
↑ Back to top | Green Day Tabs for No One Knows. Lyrics for acoustic guitar and electric guitar. Tablatures and chords are parodies/interpretations of the original songs. You may use it for private study, scholarship, research or language learning purposes only