>
 >
Minority 2

Minority 2 Guitar Tabs

Green Day - Minority 2 chords, tabs, tablatures, lyrics

Guitar lessons | Add/correct | Request | Top 50 tabs Artists:  A B C D E F G H I J K L M N O P Q R S T U V W X Y Z 0-9

Minority 2 Guitar Tabs – Green Day

CD, Sheet music, Poster

Do you like Minority 2? Share with your friends now
ChordsTabsTabs v2Tabs v3
Released: 2000 reprise records
Track: 11

x - scratch


intro/outro - clean

|-----------------------------0----------------------------------------------|
|-------1----------0--------1---1--------1----------1----------0-------------|
|-----0---0------0---0----2------------0---0------0---0------0---0----0-0-0--|
|---2----------0--------3------------2----------2----------0--------3-2-0----|
|-3--------------------------------3----------3---------------------------3--|
|------------3-------------------------------------------3-------------------|

chorus - distorted

|-----------------------------------------------------------------|
|-----------------------------------------------------------------|
|-5-5-5-5-------------------------5-5-5-5-------------------------|
|-5-5-5-5-3-3-3-3-5-5-5-5-3-3-3-3-5-5-5-5-3-3-3-3-5-5-5-5-3-3-3-3-|
|-3-3-3-3-3-3-3-3-5-5-5-5-3-3-3-3-3-3-3-3-3-3-3-3-5-5-5-5-3-3-3-3-|
|---------1-1-1-1-3-3-3-3-1-1-1-1---------1-1-1-1-3-3-3-3-1-1-1-1-|

verse - clean

|------------------------------------------------------------------
|------------------------------------------------------------------
|-5-5-5-5-----------------5-5-5-5--5-5-5-5-------------------------
|-5-5-5-5-5-5-5-5-3-3-3-3-5-5-5-5--5-5-5-5-5-5-5-5-3-3-3-3-5-5-5-5-
|-3-3-3-3-5-5-5-5-3-3-3-3-3-3-3-3--3-3-3-3-5-5-5-5-3-3-3-3-5-5-5-5-
|---------3-3-3-3-1-1-1-1------------------3-3-3-3-1-1-1-1-3-3-3-3-

 ------------------------------------------------------------------|
 ------------------------------------------------------------------|
 -5-5-5-5-----------------5-5-5-5--5-5-5-5-----------------5-5-5-5-|
 -5-5-5-5-5-5-5-5-3-3-3-3-5-5-5-5--5-5-5-5-3-3-3-3-5-5-5-5-5-5-5-5-|
 -3-3-3-3-5-5-5-5-3-3-3-3-3-3-3-3--3-3-3-3-3-3-3-3-5-5-5-5-3-3-3-3-|
 ---------3-3-3-3-1-1-1-1------------------1-1-1-1-3-3-3-3---------|

bridge

|-------------------------------------------------------------------------------
|-------------------------------------------------------------------------------
|-----------------9-10-10-10-10-10-10-5-5-5-5-5-5-------------------------------
|-7-7-7-7-7-7-7-7-9-10-10-10-10-10-10-5-5-5-5-5-5-7-7-7-7-7-7-7-7-2-3-3-3-3-3-3-
|-7-7-7-7-7-7-7-7-7--8--8--8--8--8--8-3-3-3-3-3-3-7-7-7-7-7-7-7-7-2-3-3-3-3-3-3-
|-5-5-5-5-5-5-5-5---------------------------------5-5-5-5-5-5-5-5-0-1-1-1-1-1-1-

 ------------------------------------------------------------------------------
 ------------------------------------------------------------------------------
 ------------------------------9-10-10-10-10-10-10-5-5-5-5-5-5-----------------
 -5-5-5-5-5-5--7-7-7-7-7-7-7-7-9-10-10-10-10-10-10-5-5-5-5-5-5-7-7-7-7-7-7-7-7-
 -5-5-5-5-5-5--7-7-7-7-7-7-7-7-7--8--8--8--8--8--8-3-3-3-3-3-3-7-7-7-7-7-7-7-7-
 -3-3-3-3-3-3--5-5-5-5-5-5-5-5---------------------------------5-5-5-5-5-5-5-5-

 -----------------------------------|
 -----------------------------------|
 -----------------------------------|
 -3-5-5-x-x-x-5-5-x-x-x-5-5-5-5-5-5-|
 -3-5-5-x-x-x-5-5-x-x-x-5-5-5-5-5-5-|
 -1-3-3-x-x-x-3-3-x-x-x-3-3-3-3-3-3-|

lyrics

i want to be the minority
i don't need your authority
down with the moral majority
cause i want to be the minority
i pledge allegiance to the underworld
one nation under dog of which i stand alone
a face in the crowd, a song against the mold
without a doubt, singled out, the only way i know
cause i want to be the minority
i don't need your authority
down with the moral majority
cause i want to be the minority
stepped out of the light like a sheep runs from the herd
marching out of time to my own beat now the only way i know
one light one mind, lashing in the dark
rising by the silence of a thousand broken hearts
for crying out loud, she screamed down to me
a free for all, fuck 'em all you and you're out of sight





Comments


Popular Green Day tabs & chords
Dominated Love Slave 2 Bass Tabs
Good Riddance / Time Of Your Life Chords
Burnout Tabs
Coming Clean 2 Tabs
Dominated Love Slave Tabs
Fod 7 Tabs
Going To Pasalacqua Tabs
I Want To Be Alone Tabs
Macy's Day Parade Tabs
Nice Guys Finsh Last Tabs


Song lyrics



↑ Back to top | Tablatures and chords are parodies/interpretations of the original songs. You may use it for private study, scholarship, research or language learning purposes only
© 2014 AZChords.com Contact us | Privacy policy | DMCA | Add/correct tabs | Request tabs | Top 50 tabs