» » »

Green Day, Minority Tabs (ver.1)

Artists:  A B C D E F G H I J K L M N O P Q R S T U V W X Y Z # 

Minority Tabs (ver.1)

Green Day Tabs
 Rating:
4/5 (4 votes)
Minority lessons Tabs too difficult? Try these video lessons and learn fast
1
                
This TAB is fairly accurate, but if there are any errors then feel free to e-mail me. 

Intro: 

(Acoustic)
|-------------------------------------------------0--------------------------------------------|
|-----------1---------------3-----------1-------------1------------1---------------1-----------|
|-----2--------0---------------0--------------2-----------0------------0---------------0-------|
|--------0-----------2--------------3---------------------0h2--2----------0h2--2--------------0|
|--3--------------------0----------------------------------------------------------------------|
|-----------------3-----------------------------------------------------------------------3----|

|-------------------------|
|------3------------------|
|---------0----3--2--0----|
|--------------3--3--3-2--|
|--2-------------------3--|
|-------------------------|

Chorus:
    |C|         |F|         |G|         |F|         |C|         |F|         |G|         |F|
|-------------1-1-1-1-----3-3-3-3-----1-1-1-1--|--------------1-1-1-1-----3-3-3-3-----3-3-3-3--|
|-1-1-1-1-----1-1-1-1-----3-3-3-3-----1-1-1-1--|--1-1-1-1-----1-1-1-1-----3-3-3-3-----1-1-1-1--|
|-0-0-0-0--X--2-2-2-2--X--4-4-4-4--X--2-2-2-2--|--0-0-0-0--X--2-2-2-2--X--4-4-4-4--X--2-2-2-2--|
|-2-2-2-2--X--3-3-3-3--X--5-5-5-5--X--3-3-3-3--|--2-2-2-2--X--3-3-3-3--X--5-5-5-5--X--3-3-3-3--|
|-3-3-3-3-----3-3-3-3-----5-5-5-5-----3-3-3-3--|--3-3-3-3-----3-3-3-3-----5-5-5-5-----3-3-3-3--|
|-------------1-1-1-1-----3-5-5-5-----1-1-1-1--|--------------1-1-1-1-----3-3-3-3-----1-1-1-1--|

     |C|         |F|         |G|         |F|         |C|         |F|         |G|         |F|
|--------------1-1-1-1-----3-3-3-3-----1-1-1-1--|--------------1-1-1-1-----3-3-3-3-----1-1-1-1--|
|--1-1-1-1-----1-1-1-1-----3-3-3-3-----1-1-1-1--|--1-1-1-1-----1-1-1-1-----3-3-3-3-----1-1-1-1--|
|--0-0-0-0--X--2-2-2-2--X--4-4-4-4--X--2-2-2-2--|--0-0-0-0--X--2-2-2-2--X--4-4-4-4--X--2-2-2-2--|
|--2-2-2-2--X--3-3-3-3--X--5-5-5-5--X--3-3-3-3--|--2-2-2-2--X--3-3-3-3--X--5-5-5-5--X--3-3-3-3--|
|--3-3-3-3-----3-3-3-3-----5-5-5-5-----3-3-3-3--|--3-3-3-3-----3-3-3-3-----5-5-5-5-----3-3-3-3--|
|--------------1-1-1-1-----3-5-5-5-----1-1-1-1--|--------------1-1-1-1-----3-3-3-3-----1-1-1-1--|

Verses:

|-----------------------------------------------------------------------------------------------|
|----------1---------------------------------1----------------1---------------1-----------------|
|--------------0-----------0---------------------2----------------0---------------0----------0--|
|------2------------------------0-------3----------------3----------------2---------------------|
|--3-------------------2------------3----------------3----------------3-------------------2-----|
|------------------3------------------------------------------------------------------3---------|

|-------------------------------------|---------------------------------------------------------|
|--------------1----------------------|----------1---------------------------------1------------|
|------------------2-----------0------|--------------0-----------0---------------------2--------|
|--0-------3-----------------------0--|------2------------------------0--------3--------------2-|
|------3-------------------2----------|--3-------------------2-------------3--------------3-----|
|----------------------3--------------|------------------3--------------------------------------|

|-----------------------------------------------------------------------------|
|--1---------------1---------------------------------1-----------------1------|
|------0---------------0------------0--------------------2------------------0-|
|--------------2------------------------0--------3-----------------2----------|
|----------3--------------------2------------3----------------3---------------|
|---------------------------3-------------------------------------------------|

Bridges:
      |A5|       |E5|     |F5|         |C5|           |A5|       |E5|  |F5|      |G|
|--------------------------------------------------------------------------------------|
|--------------------------------------------------------------------------------------|
|-2-2-2-2-2-2-2---9---10-10-10-10-----------------2-2-2-2-2-2-2------------------------|
|-2-2-2-2-2-2-2---9---10-10-10-10---10-10-10-10---2-2-2-2-2-2-2---2---3-3-3-3---5-5-5-5|
|-0-0-0-0-0-0-0---7---8--8--8--8----10-10-10-10---0-0-0-0-0-0-0---2---3-3-3-3---5-5-5-5|
|-----------------------------------8--8--8--8--------------------0---1-1-1-1---3-3-3-3|
      |A5|       |E5|    |F5|          |C5|           |A5|       |E5| |G|
|-----------------------------------------------------------------------------------------------|
|-----------------------------------------------------------------------------------------------|
|-2-2-2-2-2-2-2---9---10-10-10-10-----------------2-2-2-2-2-2-2---------------------------------|
|-2-2-2-2-2-2-2---9---10-10-10-10---10-10-10-10---2-2-2-2-2-2-2---3---5-5-----5-5-----5-X-5-X-5-|
|-0-0-0-0-0-0-0---7---8--8--8--8----10-10-10-10---0-0-0-0-0-0-0---3---5-5-----5-5-----5-X-5-X-5-|
|-----------------------------------8--8--8--8--------------------1---3-3-XXX-3-3-XXX-3-X-3-X-3-|

Outro:

(Acoustic)
|-------------------------------------------------0--------------------------------------------|
|-----------1---------------3-----------1-------------1------------1---------------1-----------|
|-----2--------0---------------0--------------2-----------0------------0---------------0-------|
|--------0-----------2--------------3---------------------0h2--2----------0h2--2--------------0|
|--3--------------------0----------------------------------------------------------------------|
|-----------------3-----------------------------------------------------------------------3----|

|-------------------------|
|------3------------------|
|---------0----3--2--0----|
|--------------3--3--3-2--|
|--2-------------------3--|
|-------------------------|
            
Submit corrections

comments powered by Disqus
↑ Back to top | Green Day Tabs for Minority. Lyrics for acoustic guitar and electric guitar. 1 Tablatures and chords are parodies/interpretations of the original songs. You may use it for private study, scholarship, research or language learning purposes only