» » »

Green Day, Life During Wartime Tabs (ver.2)

Artists:  A B C D E F G H I J K L M N O P Q R S T U V W X Y Z # 

Life During Wartime Tabs (ver.2)

Green Day Tabs
Rating:
0/5 (0 votes)
Life During Wartime lessons Tabs too difficult? Try these video lessons and learn fast
                INTRO RIFF
|---------------------|
|---------------------|
|-----5---3---6---8---|
|-6---5---3---6---8---|   x2
|-6---3---1---4---6---|
|-4-------------------|

VERSE RIFF
|-------------|
|-------------|
|-----6-------|
|-6---6---8---|   x2
|-6---4---8---|
|-4-------6---|

PRE CHORUS RIFF
|---------|                 |---|
|---------|                 |---|
|---------|                 |---|
|-6-----3-|   x3 then this: |-8-|
|-6-----3-|                 |-8-|
|-4-----1-|                 |-6-|

BRIDGE
|---------------|                 |------------|
|---------------|                 |------------|
|-6-5-6---------|                 |-6-------8--|
|-6-5-6---6-4-6-|  x3 then this:  |-6-------8--|
|-4-3-4---6-4-6-|                 |-4-------6--|
|---------4-2-4-|                 |------------|

ORDER:
INTRO
VERSE 
PRE CHORUS
INTRO
VERSE
PRE CHORUS
BRIDGE X2
PRE CHORUS
INTRO


peace out.
            

comments powered by Disqus
↑ Back to top | Green Day Tabs for Life During Wartime. Lyrics for acoustic guitar and electric guitar. Tablatures and chords are parodies/interpretations of the original songs. You may use it for private study, scholarship, research or language learning purposes only