» » »

King For A Day Tabs (ver.2)

Artists:  A B C D E F G H I J K L M N O P Q R S T U V W X Y Z # 

King For A Day Tabs (ver.2)

Green Day
Rating:
0/5 (0 votes)

Hard to play? Try these video lessons and learn fast.
                You can play this song how ever you want but i think it sounds a little better tuned down half a step









No guitar part in verse.....


Little thingy before chorus (sugar and spice and everything nice.....)  :

D-------7-7-7-7-7-7-7-7--9-9-9-9-9-9-9-9----|
A-------7-7-7-7-7-7-7-7--9-9-9-9-9-9-9-9----|
E-------5-5-5-5-5-5-5-7--7-7-7-7-7-7-7-7----|
4x

Chorus (king for a day.....)    :

G----9---9-----6-6-6-6-6-6-6-6----------|
D----9-9-9-9---6-6-6-6-6-6-6-6----------|
A----7-9-7-9---4-4-4-4-4-4-4-4----------|
E------7---7----------------------------|

Other chorus thing (just wait till all the guys get a load of me)       :

D-------7-7-7-7-7-7-7-7--9-9-9-9-9-9-9-9----|
A-------7-7-7-7-7-7-7-7--9-9-9-9-9-9-9-9----|
E-------5-5-5-5-5-5-5-7--7-7-7-7-7-7-7-7----|




Well that was my first tab but i know its 100% correct, oh there might be a 
little guitar part in the trumpet/bass/trombone "solo" thing but its not noticeable.
            
Hard to play? Try these video lessons and learn fast. | Correct




comments powered by Disqus
↑ Back to top | Tablatures and chords are parodies/interpretations of the original songs. You may use it for private study, scholarship, research or language learning purposes only