>
 >
Good Riddance / Time Of Your Life

Good Riddance / Time Of Your Life Guitar Tabs

Green Day - Good Riddance / Time Of Your Life chords, tabs, tablatures, lyrics

Guitar lessons | Add/correct | Request | Top 50 tabs Artists:  A B C D E F G H I J K L M N O P Q R S T U V W X Y Z 0-9

Good Riddance / Time Of Your Life Guitar Tabs – Green Day

CD, Sheet music, Poster

Do you like Good Riddance / Time Of Your Life? Share with your friends now
ChordsTabs

Played in the Key of G. Note: Intro & Outro are different

Intro:
                                  |G|                                     |C|
|-----------------------------------------------------------------------------------------------|
|------------------------------------------3------------------3---------------------3-----------|
|--------0----------------0----------------0--0----0----------0--0-----0------------0--0-----0--|
|-----------0----------------0------------------------------------------------------------------|
|----------------------------------5------------------5--------------------3--3-----------3-----|
|-3--3-------------3--3------------3--3---------3-----3--3----------3---------------------------|
  |D|                  |G|                                 |C|             |D|       
|---------------------|-------------------------------------------------------------------------|
|---------3-----------|-------3----------------3------------------3--------------3--------------|
|------------0------0-|-------0--0----0--------0--0-----0---------0--0---0-----------0-------0--|
|-0--0-----------0----|-----------------------------------------------------0--0---------0------|
|---------------------|-5----------------5------------------3--3-------3------------------------|
|---------------------|-3--3-------3-----3--3--------3------------------------------------------|

Verse 1:
  |G|                                 |C|                 |D|                     |G|                 
|-----------------------------------------------------------------------------------------------|
|--------3-----------------3------------------3-------------------3-----------------------3-----|
|--------0--0----0---------0--0----0----------0--0-----0--------------0-------0-----------0--0--|
|----------------------------------------------------------0--0-----------0---------------------|
|-5-----------------5------------------3--3---------3------------------------------5------------|
|-3--3--------3-----3--3--------3--------------------------------------------------3--3---------|
                             |C|                 |D|                  |Em|                     
|-----------------------------------------------------------------------------------------------|
|--------------3-------------------3-------------------3----------------------0-----------------|
|----0---------0--0-----0----------0--0-----0--------------0-------0---------------0--------0---|
|-------------------------------------------------0--0-----------0---------------------2--------|
|--------5--------------------3--3---------3----------------------------------------------------|
|-3------3--5----------3-----------------------------------------------0--0---------------------|

 |D|                    |C|                      |G|                   |Em|            
|-----------------------------------------------------------------------------------------------|
|--------3-----------------------1-----------------------3---------------------0----------------|
|-----------2-------2----------------0--------0--------------0------0---------------0--------0--|
|-0--0----------0-------------------------2----------------------0----------------------2-------|
|------------------------3--3-------------------------------------------------------------------|
|-------------------------------------------------3--3------------------0--0--------------------|

 |D|                  |C|                     |G|         
|---------------------------------------------------------------------|
|--------3-------------------1-------------------------3--------------|
|-----------2-----2--------------0--------0-----------------0-------0-|
|-0--0---------0---------------------2--------------------------0-----|
|---------------------3--3--------------------------------------------|
|----------------------------------------------3--3-------------------|

Chorus 1:
|Em|                        |G|                      |Em|                        |G| 
|-----------------------------------------------------------------------------------------------|
|---------0--------------------------3-------------------------0-----------------------3--------|
|-------------0--------0-----------------0---------0----------------0---------0------------0----|
|-----------------2---------------------------0--------------------------2---------------------0|
|-----------------------------------------------------------------------------------------------|
|-0--0-----------------------3--3----------------------0--0-----------------------3--3----------|

     |Em|                        |D|                        |G|
|--------------------------------------------------------------|
|-------------0---------------------------3--------------------|
|-0---------------0---------0-----------------2---------2------|Begin Strumming Verse 2 Using
|----------------------2----------0--0-------------0-----------|Chord Progression In Patt 1.
|--------------------------------------------------------------|
|-----0--0---------------------------------------------------3-|

Patt 1:

 |G|         |Cadd9|   |D|        |G|          |Cadd9|   |D|
|---------------3-------2-------------------------3-------2--|
|-3-------------3-------3----------3--------------3-------3--|
|-0-------------0-------2----------0--------------0-------2--|
|-0-------------2-------0----------0--------------2-------0--|
|-x-------------3------------------x--------------3----------|
|-3--------------------------------3-------------------------|

Verse 2:

  |G|                          |Cadd9|         |D|     |G|                       |Cadd9|     |D| 
|---------------------------------3-------------2-----------------------------------3---------2-|
|--3------------------------------3-------------3-------3---------------------------3---------3-|
|--0------------------------------0-------------2-------0---------------------------0---------2-|
|--0------------------------------2-------------0-------0---------------------------2---------0-|
|--x------------------------------3---------------------x---------------------------3-----------|
|--3----------------------------------------------------3---------------------------------------|

                                                         
 |Em|  |D|   |C|   |G|    |Em|	|D|   |C|   |G|                                                     
|-0-----2-----0------------0-----2-----0-----3-|
|-0-----3-----1-----3------0-----3-----1-----3-|     
|-0-----2-----0-----0------0-----2-----0-----0-|     
|-2-----0-----2-----0------2-----0-----2-----0-|     
|-2-----------3-----x------2-----------3-----x-|     
|-0-----------------3------0-----------------3-|     

Chorus 2:
 |Em|   |G|    |Em|   |G|    |Em|   |D|   |G|
|-0------3------0------3------0------2-----3-|     
|-0------3------0------3------0------3-----3-|     
|-0------0------0------0------0------2-----0-|Strum Through Patt 1 During Violin Solo       
|-2------0------2------0------2------0-----0-|Moving Onto Chorus 1, Then Switch To Outro.
|-2------2------2------2------2------------2-|     
|-0------3------0------3------0------------3-|                                                          
Outro:

|------------------------------------------------------------------------------------|
|-------3-------------------3----------------------3-------------------3-------------|
|----------0------0-------------0-------0--------------0-----0-------------2--------2|
|--------------0--------------------0----------------------------0--0-----------0----|
|-------------------------------------------3--3-----------3-------------------------|
|-3--3---------------3--3------------------------------------------------------------|
                                            Rall. (Slowing Down)
|----------------------------------------------------------------------------------|
|-------3-------------------3----------------------3---------------------3---------|
|----------0------0-------------0-------0--------------0------0--------------2-----|
|--------------0--------------------0-----------------------------0--0------------0|
|-------------------------------------------3--3-----------3-----------------------|
|-3--3---------------3--3----------------------------------------------------------|

|------------|
|------------|
|--2-------0-| Let Ring.
|------0---0-|
|----------x-|
|----------3-|





Comments


Popular Green Day tabs & chords
Bab's Uvula Who? 1 Bass Tabs
Poprocks & Coke Bass Tabs
Basket Case 2 Chords
Boulevard Of Broken Dreams 3 Chords
Fod 1 Chords
Panic Song Chords
Castaway 3 Tabs
Minority Tabs
Redundant  Tabs
Stew Brain Tabs


Song lyrics



↑ Back to top | Tablatures and chords are parodies/interpretations of the original songs. You may use it for private study, scholarship, research or language learning purposes only
© 2014 AZChords.com Contact us | Privacy policy | DMCA | Add/correct tabs | Request tabs | Top 50 tabs