>
 >
Good Riddance

Good Riddance Guitar Tabs

Green Day - Good Riddance chords, tabs, tablatures, lyrics

Guitar lessons | Add/correct | Request | Top 50 tabs Artists:  A B C D E F G H I J K L M N O P Q R S T U V W X Y Z 0-9

Good Riddance Guitar Tabs – Green Day

CD, Sheet music, Poster

Do you like Good Riddance? Share with your friends now
ChordsTabsTabs v2Tabs v3Tabs v4

Green Day - Good Riddance
Nimrod

I decided to make this tab because i was sick of seeing every tab wrong.
I think everything is right. I spent a lot of time doing this so have fun with it.



G5  3X0033

Csus2   X30033

D5   000230



Intro
e-------------------------------|
B-------------------------------|
G--------0---------------0------|
D----------0---------------0----|
A-------------------------------|
E--3--3------------3--3---------|

Verse (guitar 1)
       G5                             Csus2             D5
e-------------------------------------------------------------------|
B--------3---------------3---------------3---------------3----------|
G----------0---0-----------0---0---0--0----0---0---2--2----2---2----|
D--0--0------0-----0--0------0-----X--X------0-----0--0------0------|
A--X--X------------X--X------------3--3-----------------------------|
E--3--3------------3--3---------------------------------------------|X4

Pre-Chorus (guitar 1)
e-------------------------------------------------------------------|
B--------3---------------3---------------3---------------3----------|
G----------0---0---2--2----2---2---0--0----0---0-----------0---0----|
D--2--2------0-----0--0------0-----X--X------0-----0--0------0------|
A--2--2----------------------------3--3------------X--X-------------|
E--------------------------------------------------3--3-------------|X2

Chorus (guitar 1)
e-------------------------------------------------------------------|
B--------3---------------3---------------3---------------3----------|
G----------0---0-----------0---0-----------0---0-----------0---0----|
D--2--2------0-----0--0------0-----2--2------0-----0--0------0------|
A--2--2------------X--X------------2--2------------X--X-------------|
E------------------3--3----------------------------3--3-------------|

Chorus cont. (guitar 1)
e---------------------------------------------------|
B--------3---------------3---------------3----------|
G----------0---0---2--2----2---2-----------0---0----|
D--2--2------0-----0--0------0-----0--0------0------|
A--2--2----------------------------X--X-------------|
E----------------------------------3--3-------------|

Now a second guitar comes in playing the rhythm
The Strumming pattern is down, down, up, up, down, up
I won't put the first guitar in because it's doing the same thing as before.
For the D5 you can play it open (000230)

Verse (guitar 2)
e--333333--333333--333333--------------|
B--333333--333333--333333--333333------|
G--000000--000000--000000--222222------|
D--000000--000000--XXXXXX--000000------|
A--XXXXXX--XXXXXX--333333--------------|
E--333333--333333----------------------|X4

Pre-Chorus (guitar 2)
e--000000----------333333--333333------|
B--000000--333333--333333--333333------|
G--000000--222222--000000--000000------|
D--222222--000000--XXXXXX--000000------|
A--222222----------333333--XXXXXX------|
E--000000------------------333333------|x2

Chorus (guitar 2)
e--000000--333333--000000--333333--000000--222222--333333----|
B--000000--333333--000000--333333--000000--333333--333333----|
G--000000--000000--000000--000000--000000--222222--000000----|
D--222222--000000--222222--000000--222222--000000--000000----|
A--222222--XXXXXX--222222--XXXXXX--222222----------XXXXXX----|
E--000000--333333--000000--333333--000000----------333333----|

At the end of the chorus the G5 continues back to the verse for the 2nd verse and so on.
Just listen to the song.

Here is the order: G1=guitar 1 G2=guitar 2

Intro
Verse G1
Pre-Chorus G1
Chorus G1
Verse G2
Pre-Chorus G2
Chorus G2
Verse G2
Pre-Chorus G2
Chorus G2
Verse G2
Verse G1
G5 Chord





Comments


Popular Green Day tabs & chords
Brain Stew Bass Tabs
21st Century Breakdown 3 Chords
Amy 4 Chords
Do Da Da Chords
My Generation Chords
Emenius Sleepus Tabs
Emenius Sleepus 1 Tabs
Espoinage Intro Tabs
Give Me Novacaine 9 Tabs
In The End Tabs


Song lyrics



↑ Back to top | Tablatures and chords are parodies/interpretations of the original songs. You may use it for private study, scholarship, research or language learning purposes only
© 2014 AZChords.com Contact us | Privacy policy | DMCA | Add/correct tabs | Request tabs | Top 50 tabs