» » »

Good Ridance Tabs (ver.1)

Artists:  A B C D E F G H I J K L M N O P Q R S T U V W X Y Z # 

Good Ridance Tabs (ver.1)

Green Day
Rating:
0/5 (0 votes)

Hard to play? Try these video lessons and learn fast.
                Good Riddance (Time Of Your Life)

This is the exact finger picking!!!

Chords
   G    C    Cadd9 D     Em
e|-3----0----0-----2-----0---------------------------------------|
B|-3----1----3-----3-----0---------------------------------------|
G|-0----0----0-----2-----0---------------------------------------|
D|-0----2----2-----0-----2---------------------------------------|
A|-2----3----3-----0-----2---------------------------------------|
E|-3---------------------0---------------------------------------|

Intro
   G				"f**k"
e|---------------------------------------------------------------|
B|--------------------------------------------------------------|
G|-------0--------------0----------------------------------------|
D|----------0--------------0-------------------------------------|
A|---------------------------------------------------------------|
E|-3--3-----------3--3-------------------------------------------|

Verse (x4, vocals come in on 3rd time)
   G                             Cadd9          D
e|---------------------------------------------------------------|
B|-------3--------------3--------------3--------------3----------|
G|--------------0--------------0-------------0--------------2----|
D|------------0--------------0-------------2----0--0------0------|
A|-------------------------------3--3----------------------------|
E|-3--3-----------3--3-------------------------------------------|

Pre-Chorus (x2)
   Em             D              Cadd9          G
e|---------------------------------------------------------------|
B|-------0--------------3--------------3--------------3----------|
G|------------0----------------2-------------0---------------0---|
D|----------2-----0--0-------0-------------2---------------0-----|
A|-------------------------------3--3----------------------------|
E|-0--0-----------------------------------------3--3-------------|

Chorus
   Em             G         (x2) Em             D
e|---------------------------------------------------------------|
B|-------0--------------3--------------0--------------3----------|
G|-------------0---------------0-------------0---------------2---|
D|-----------2---------------0-------------2----0--0-------0-----|
A|---------------------------------------------------------------|
E|-0--0-----------3--3-----------0--0----------------------------|

Order
Intro
Verse 1 (picked)
Pre-Chorus 1 (picked)
Chorus (picked)
Verse 2 (strummed)
Pre-Chorus 2 (strummed)
Chorus (strummed)
Bridge (verse & pre-chorus chords strummed)
Chorus (strummed)
Verse chords x2 (strummed)
Chorus (picked)
            
Hard to play? Try these video lessons and learn fast. | Correct




comments powered by Disqus
↑ Back to top | Tablatures and chords are parodies/interpretations of the original songs. You may use it for private study, scholarship, research or language learning purposes only