» » »

Green Day, Give Me Novacaine Tabs (ver.9)

Artists:  A B C D E F G H I J K L M N O P Q R S T U V W X Y Z # 

Give Me Novacaine Tabs (ver.9)

Green Day Tabs
 Rating:
4/5 (4 votes)
Give Me Novacaine lessons Tabs too difficult? Try these video lessons and learn fast
                ----------------------------------------------------
----------------------------------------------------

Tuning:Standard



Drum intro 0:00 - 0:06


Intro - Once with drums then Billie starts singing
Up and down strokes(listen to the song)

           A		   F#m		    Bm		     E

e|-0-0-0-0-0-0-0-0--2-2-2-2-2-2-2-2--2-2-2-2-2-2-2-2--0-0-0-0-0-0-0-0-|
B|-2-2-2-2-2-2-2-2--2-2-2-2-2-2-2-2--3-3-3-3-3-3-3-3--0-0-0-0-0-0-0-0-|
G|-2-2-2-2-2-2-2-2--2-2-2-2-2-2-2-2--4-4-4-4-4-4-4-4--1-1-1-1-1-1-1-1-|
D|-2-2-2-2-2-2-2-2--4-4-4-4-4-4-4-4--4-4-4-4-4-4-4-4--2-2-2-2-2-2-2-2-|x4
A|-0-0-0-0-0-0-0-0--4-4-4-4-4-4-4-4--2-2-2-2-2-2-2-2--2-2-2-2-2-2-2-2-|
E|------------------2-2-2-2-2-2-2-2-------------------0-0-0-0-0-0-0-0-|
   Take away......inside.............Bittersweet...my head.

	PreChorus(Electric Guitar)
e|--------------------------------------------------------|
B|--------------------------------------------------------|
G|----7-7-7-7-7-------------------------------------------|
D|----7-7-7-7-7-----------------------7-7-7-7-7-7-7-7-7-7-|x2
A|--\-5-5-5-5-5-----------------------7-7-7-7-7-7-7-7-7-7-|
E|--\---------------------------------5-5-5-5-5-5-5-5-5-5-|
	      Drain the pressure....swelling   
              This sensation's overwhelming

        PreChorus(Acoustic Guitar)
e|---2-2-2-2-2------------------------0-0-0-0-0-0-0-0-0-0-|
B|---3-3-3-3-3------------------------2-2-2-2-2-2-2-2-2-2-|
G|---2-2-2-2-2------------------------2-2-2-2-2-2-2-2-2-2-|
D|---0-0-0-0-0------------------------2-2-2-2-2-2-2-2-2-2-|x2
A|------------------------------------0-0-0-0-0-0-0-0-0-0-|
E|--------------------------------------------------------|
               Drain the pressure....swelling   
               This sensation's overwhelming


	Chorus
e|-------------------------------------------|
B|-------------------------------------------|
G|-7-7-7-7-7-7-7-7-7-7-----------------------|
D|-7-7-7-7-7-7-7-7-7-7--4-4-4-4-4-4-4-4-4-4--|
A|-5-5-5-5-5-5-5-5-5-5--4-4-4-4-4-4-4-4-4-4--|
E|----------------------2-2-2-2-2-2-2-2-2-2--|
   Give me a long kiss..Everything will be... 

e|----------------------------------|  
B|----------------------------------| 
G|-4-4-4-4-4-4-4-4-4-4-/--9-9-9-9-9-|
G|-4-4-4-4-4-4-4-4-4-4-/--9-9-9-9-9-|
D|-2-2-2-2-2-2-2-2-2-2-/--7-7-7-7-7-|
E|----------------------------------|
   Tell me that I....thing  	      Give me novacaine        


e|---0-0-0-0-0-0-0-0--2-2-2-2-2-2-2-2--2-2-2-2-2-2-2-2--0-0-0-0-0-0-0-0--|
B|---2-2-2-2-2-2-2-2--2-2-2-2-2-2-2-2--3-3-3-3-3-3-3-3--0-0-0-0-0-0-0-0--|
G|---2-2-2-2-2-2-2-2--2-2-2-2-2-2-2-2--4-4-4-4-4-4-4-4--1-1-1-1-1-1-1-1--|
D|---2-2-2-2-2-2-2-2--4-4-4-4-4-4-4-4--4-4-4-4-4-4-4-4--2-2-2-2-2-2-2-2--|x4
A|---0-0-0-0-0-0-0-0--4-4-4-4-4-4-4-4--2-2-2-2-2-2-2-2--2-2-2-2-2-2-2-2--|
E|--------------------2-2-2-2-2-2-2-2-------------------0-0-0-0-0-0-0-0--|
     Out of body......mind.............kiss the demons..dreams.


This is played after "Give me novacaine" when Billie 
isnt singing with the acoustic playing the intro/verse.
e|-------------------------------------------------------------|
B|-5-/-10~----------10-\-7~----------7-/-12~-----------12-/-9~-|
G|-------------------------------------------------------------|
D|-------------------------------------------------------------|
A|-------------------------------------------------------------|
E|-------------------------------------------------------------|

          PreChorus(Electric Guitar)
e|-------------------------------------------------------|
B|-------------------------------------------------------|
G|---7-7-7-7-7-------------------------------------------|
D|---7-7-7-7-7-----------------------7-7-7-7-7-7-7-7-7-7-|x2
A|-\-5-5-5-5-5-----------------------7-7-7-7-7-7-7-7-7-7-|
E|-\---------------------------------5-5-5-5-5-5-5-5-5-5-|
	      Drain the pressure....swelling   
              This sensation's overwhelming

 PreChorus(Acoustic Guitar)
e|---2-2-2-2-2------------------------0-0-0-0-0-0-0-0-0-0-|
B|---3-3-3-3-3------------------------2-2-2-2-2-2-2-2-2-2-|
G|---2-2-2-2-2------------------------2-2-2-2-2-2-2-2-2-2-|
D|---0-0-0-0-0------------------------2-2-2-2-2-2-2-2-2-2-|x2
A|------------------------------------0-0-0-0-0-0-0-0-0-0-|
E|--------------------------------------------------------|
               Drain the pressure....swelling   
               This sensation's overwhelming

e|-------------------------------------------|
B|-------------------------------------------|
G|-7-7-7-7-7-7-7-7-7-7-----------------------|
D|-7-7-7-7-7-7-7-7-7-7--4-4-4-4-4-4-4-4-4-4--|
A|-5-5-5-5-5-5-5-5-5-5--4-4-4-4-4-4-4-4-4-4--|
E|----------------------2-2-2-2-2-2-2-2-2-2--|
   Give me a long kiss..Everything will be...

e|----------------------------------|  
B|----------------------------------| 
G|-4-4-4-4-4-4-4-4-4-4-/--9-9-9-9-9-|
G|-4-4-4-4-4-4-4-4-4-4-/--9-9-9-9-9-|
D|-2-2-2-2-2-2-2-2-2-2-/--7-7-7-7-7-|
E|----------------------------------|
   Tell me that I....thing  	      Give me novacaine   


e|--------------------------------------|
B|--------------------------------------|
G|--------------------------------------|
D|--------------------------------------|
A|-xxxxxxx--7-7-7-7-7-7-7-7-7-7-7-7-7-7-|
E|-xxxxxxx--5-5-5-5-5-5-5-5-5-5-5-5-5-5-|
    me Novacaine				           
  
e|----------------------------------------------|
B|----------------------------------------------|
G|----------------------------------------------|
D|----------------------------------------------|x3
A|-4-4-4-4-4-4-4-4-4-4--7-7-7-7-7-7-7-7-7-7-7-7-|
E|-2-2-2-2-2-2-2-2-2-2--5-5-5-5-5-5-5-5-5-5-5-5-|
                   ^
		Slide into the solo 

e|----------------------------------------------------------|
B|----------------------------------------------------------|
G|-4-4-4-4-4-4-4-4--9-9-9-9-9--9--9--9--9--9--9--9--9-9-9-9-|
D|-4-4-4-4-4-4-4-4--9-9-9-9-9--9--9--9--9--9--9--9--9-9-9-9-|
A|-2-2-2-2-2-2-2-2--7-7-7-7-7--7--7--7--7--7--7--7--7-7-7-7-|
E|----------------------------------------------------------|    

 Solo
e|------------------------------------------------------------|
B|---------------9-10-10-9--------------------14--------------|
G|----------11-------------11------------14-------14-------14-|
D|----11-11----11-----------------14-14-----14-------14-14----|x3
A|-/9-------------------------/12-----------------------------|
E|------------------------------------------------------------|

e|-----------------------------------------------------------|
B|-----------3---3--------9-9-9-9--10101010-1212121212121212-|
G|--------4----4---4------9-9-9-9--9-9-9-9--9-9-9-9-9-9-9-9--|
D|----4-4--4---------4---------------------------------------|
A|-/2--------------------------------------------------------|
E|-----------------------------------------------------------|

e|-------------------------------------------------------|
B|-------------------------------------------------------|
G|---7-7-7-7-7-------------------------------------------|
D|---7-7-7-7-7-----------------------7-7-7-7-7-7-7-7-7-7-|x2
A|-\-5-5-5-5-5-----------------------7-7-7-7-7-7-7-7-7-7-|
E|-\---------------------------------5-5-5-5-5-5-5-5-5-5-|
	      Drain the pressure....swelling   
              This sensation's overwhelming

PreChorus(Acoustic Guitar)
e|---2-2-2-2-2------------------------0-0-0-0-0-0-0-0-0-0-|
B|---3-3-3-3-3------------------------2-2-2-2-2-2-2-2-2-2-|
G|---2-2-2-2-2------------------------2-2-2-2-2-2-2-2-2-2-|
D|---0-0-0-0-0------------------------2-2-2-2-2-2-2-2-2-2-|x2
A|------------------------------------0-0-0-0-0-0-0-0-0-0-|
E|--------------------------------------------------------|
               Drain the pressure....swelling   
               This sensation's overwhelming

e|-------------------------------------------|
B|-------------------------------------------|
G|-7-7-7-7-7-7-7-7-7-7-----------------------|
D|-7-7-7-7-7-7-7-7-7-7--4-4-4-4-4-4-4-4-4-4--|
A|-5-5-5-5-5-5-5-5-5-5--4-4-4-4-4-4-4-4-4-4--|
E|----------------------2-2-2-2-2-2-2-2-2-2--|
   Give me a long kiss..Everything will be...

e|----------------------------------|  
B|----------------------------------| 
G|-4-4-4-4-4-4-4-4-4-4-/--9-9-9-9-9-|
G|-4-4-4-4-4-4-4-4-4-4-/--9-9-9-9-9-|
D|-2-2-2-2-2-2-2-2-2-2-/--7-7-7-7-7-|
E|----------------------------------|
   Tell Jimmy I....thing  	      Give me novacaine   


e|-0-0-0-0-0-0-0-0--2-2-2-2-2-2-2-2--2-2-2-2-2-2-2-2--0-0-0-0-0-0-0-0-|
B|-2-2-2-2-2-2-2-2--2-2-2-2-2-2-2-2--3-3-3-3-3-3-3-3--0-0-0-0-0-0-0-0-|
G|-2-2-2-2-2-2-2-2--2-2-2-2-2-2-2-2--4-4-4-4-4-4-4-4--1-1-1-1-1-1-1-1-|
D|-2-2-2-2-2-2-2-2--4-4-4-4-4-4-4-4--4-4-4-4-4-4-4-4--2-2-2-2-2-2-2-2-|	
A|-0-0-0-0-0-0-0-0--4-4-4-4-4-4-4-4--2-2-2-2-2-2-2-2--2-2-2-2-2-2-2-2-|
E|------------------2-2-2-2-2-2-2-2-------------------0-0-0-0-0-0-0-0-|    

e|---0~---|
B|---2~---|
G|---2~---|
D|---2~---|
A|---0~---|
E|--------|



3:20 - 3:25 Drums

Take away the sensation inside
Bitter sweet migraine in my head
Its like a throbbing toothache of the mind
I can't take this feeling anymore

Drain the pressure from the swelling,
This sensation's overwhelming,
Give me a long kiss goodnight
and everything will be alright
Tell me that I won't feel a thing
So give me Novacaine

Out of body and out of mind
Kiss the demons out of my dreams
I get the funny feeling, that’s alright
Jimmy says its better than air/here,
I’ll tell you what

Drain the pressure from the swelling,
This sensation's overwhelming,
Give me a long kiss goodnight
and everything will be alright
Tell me that I won't feel a thing,
So give me Novacaine

Oh Novacaine.....

Drain the pressure from the swelling,
This sensation's overwhelming
Give me a long kiss goodnight
and everything will be alright
Tell me, Jimmy, I won't feel a thing,
So give me Novacaine

************************************
| /   slide up
| \   slide down
| ~   Let ring
************************************
            
Submit corrections

comments powered by Disqus
↑ Back to top | Green Day Tabs for Give Me Novacaine. Lyrics for acoustic guitar and electric guitar. Tablatures and chords are parodies/interpretations of the original songs. You may use it for private study, scholarship, research or language learning purposes only