» » »

Green Day, Ghost Busters Tabs (ver.1)

Artists:  A B C D E F G H I J K L M N O P Q R S T U V W X Y Z # 

Ghost Busters Tabs (ver.1)

Green Day Tabs
 Rating:
4/5 (4 votes)
Ghost Busters lessons Tabs too difficult? Try these video lessons and learn fast
1
                Intro:
Bend the 6th string at 7th position and slowly turn volume on guitar up from zero. Then…..

1----------------------------------------------------------------------------------------------------------
2----------------------------------------------------------------------------------------------------------
3-------12--11---10---9---7---2------------------------------------------------------------------------
4----9--12--11--10---9---7---2------------------------------------------------------------------------
5----9--10--9---8----7----5---0------------------------------------------------------------------------
6----7-----------------------------------------------------------------------------------------------------



CHORUS: With distortion: Cm /   high Am  /  high Em 
         Go through this 4 times then play the same chords Skaw style 4 times. Then…
Bridge:
1----------------------------------------------------------------------------------------------------------
2----------------------------------------------------------------------------------------------------------
3----------------------------------------------------------------------------------------------------------
4--9h--7h--5h--2h-----------------------------------------------------------------------------------
5--9h--7h--5h--2h----------------------------------------------------------------------------------
6--7h--5h--3h--0h----------------------------------------------------------------------------------


Then repeat chorus. Then repeat bridge.

                        That’s basically it its not very difficult . it only took me like 20 minutes to figure out the whole thing.   Email me with questions , comments or hate mail. Thanks. 
            
Submit corrections

comments powered by Disqus
↑ Back to top | Green Day Tabs for Ghost Busters. Lyrics for acoustic guitar and electric guitar. 1 Tablatures and chords are parodies/interpretations of the original songs. You may use it for private study, scholarship, research or language learning purposes only