» » »

Green Day, Geek Stink Breath Tabs (ver.7)

Artists:  A B C D E F G H I J K L M N O P Q R S T U V W X Y Z # 

Geek Stink Breath Tabs (ver.7)

Green Day Tabs
Rating:
0/5 (0 votes)
Geek Stink Breath lessons Tabs too difficult? Try these video lessons and learn fast
                bloody great song, hope you like it too!!
(tuning half a step down)

intro
e|-------------------|
B|-------------------|
G|------------5-5-5--|
D|-5-5-x-3-3--5-5-5--|x4
A|-5-5-x-3-3--3-3-3--|
E|-3-3-x-------------|

verse
e|------------------------------------------------------------------------|
B|------------------------------------------------------------------------|
G|------------------------------------------------------------------------|
D|-5-x-5-x------3--------5--------3--------5--------3--------5----3-3-3-3-|x2
A|-5-x-5-x--3-3-3-3--5-5-5-5--3-3-3-3--5-5-5-5--3-3-3-3--5-5-5-5--3-3-3-3-|
E|-3-x-3-x--1-1-1-1--3-3-3-3--1-1-1-1--3-3-3-3--1-1-1-1--3-3-3-3--1-1-1-1-|
pm          = =   =  = =   =  = =   =  = =   =  = =   =  = =   =  

chorus
e|-----------------------------------------------------------------|
B|-----------------------------------------------------------------|
G|-3-3-2-----------3-3-2-----------3-3-2-----------3-3-2-----------|
D|-3-3-2--3-3-3-2--3-3-2--3-3-3-2--3-3-2--3-3-3-2--3-3-2--3-3-3-2--|
A|-1-1-0--3-3-3-2--1-1-0--3-3-3-2--1-1-0--3-3-3-2--1-1-0--3-3-3-2--|
E|--------1-1-1-0---------1-1-1-0---------1-1-1-0---------1-1-1-0--|

e|------------------------------------------------------------------|
B|------------------------------------------------------------------|
G|------------------------------------------------------------------|
D|-5-5-5--3-3-3-3--5-5-5--3-3-3-3--5-5-5--3-3-3-3--5-5-5-5-5-5-5-5--|
A|-5-5-5--3-3-3-3--5-5-5--3-3-3-3--5-5-5--3-3-3-3--5-5-5-5-5-5-5-5--|
E|-3-3-3--1-1-1-1--3-3-3--1-1-1-1--3-3-3--1-1-1-1--3-3-3-3-3-3-3-3--|

verse 
e|-------------------|
B|-------------------|
G|-------------------|
D|-----5--------3----|x9
A|-5-5-5-5--3-3-3-3--|
E|-3-3-3-3--1-1-1-1--|
pm = =   =  = =   =

e|------------------|
B|------------------|
G|------------------|
D|-5-5-5-5-5-5-5-5--|
A|-5-5-5-5-5-5-5-5--|
E|-3-3-3-3-3-3-3-3--|

chorus

bridge
e|--------------------|
B|--------------------|
G|-------------5-5-5--|
D|-5-5----3-3--5-5-5--|x12
A|-5-5----3-3--3-3-3--|
E|-3-3-0--1-1---------|

chorus

bridge x4

outro
e|----------------------|------|
B|----------------------|------|
G|-------------5-5-5----|------|
D|-5-5-5--3-3--5-5-5--x2|-5-5--|
A|-5-5-5--3-3--3-3-3----|-5-5--|
E|-3-3-3--1-1-----------|-3-3--|

thats it. i think its correct, not 100%
but about 95%

David
            
Submit corrections

comments powered by Disqus
↑ Back to top | Green Day Tabs for Geek Stink Breath. Lyrics for acoustic guitar and electric guitar. Tablatures and chords are parodies/interpretations of the original songs. You may use it for private study, scholarship, research or language learning purposes only