» » »

Green Day, Geek Stink Breath Tabs (ver.5)

Artists:  A B C D E F G H I J K L M N O P Q R S T U V W X Y Z # 

Geek Stink Breath Tabs (ver.5)

Green Day Tabs
 Rating:
4/5 (4 votes)
Geek Stink Breath lessons Tabs too difficult? Try these video lessons and learn fast
                Green Day  Geek Stink Breath
Insomniac, 1995

Tuning: Standard
pm -------- = palm mute

Intro:

e|----------------|
B|----------------|
G|-----999--------|
D|-4-4-999-99-(2)-|
A|-4-4-777-99-(2)-|
E|-2-2-----77-(0)-|

Verse:

e|-------------------|
B|-------------------|
G|-------------------|
D|-4-4-4--2-2-2------|
A|-4-4-4--2-2-2------|
E|-2-2-2--0-0-0------|
pm ---  pm-----------|

Chorus:

e|------------------|  x3
B|------------------|
G|------------------|
D|-7-7-7--2--2-2----|
A|-7-7-7--2--2-2----|
E|-5-5-5--0--0-0----|

e|-------------------------|
B|-------------------------|
G|-------------------------|
D|-4-4-4-2--2-2--4444444---|
A|-4-4-4-2--2-2--4444444---|
E|-2-2-2-0--0-0--2222222---|
   ^    3x    ^

Whole Song: Intro – Verse - Chorus - Verse - Chorus - Intro  - Verse - Chorus – Intro

That’s it!
justanimrod
            
Submit corrections

comments powered by Disqus
↑ Back to top | Green Day Tabs for Geek Stink Breath. Lyrics for acoustic guitar and electric guitar. Tablatures and chords are parodies/interpretations of the original songs. You may use it for private study, scholarship, research or language learning purposes only