» » »

F O D Bass tabs (ver.3)

Artists:  A B C D E F G H I J K L M N O P Q R S T U V W X Y Z # 

F O D Bass tabs (ver.3)

Green Day
Rating:
0/5 (0 votes)

Tabs too difficult? Try these video lessons and learn fast.
                The bass doesn't come in until the whole band comes in and it gets heavy.


The main verse thing : (You're just a....)6x
Gb:------------------------------|
Db:------------------------------|
Ab:-554-----554------------------|
Eb:----5-55-----3-33-------------|

Right before the chorus, play (In telling you to...)1x
Gb:-----------------------------------|
Db:-----------------------------------|
Ab:-554-----554-----------------------|
Eb:----5-55-----3-3333333-------------|




Chorus (I've had this burning in my guts....) 2x
Gb:--------------------------------------------------------------------------|
Db:--------------------------------------------------------------------------|
Ab:-77777-------55557--------77777--------555555-55-555----------------------|
Eb:-------333333-------555555------333333------------------------------------|



After chorus : 8x
Gb:------------------------------|
Db:------------------------------|
Ab:-554-----554------------------|
Eb:----5-55-----3-33-------------|
            
Tabs too difficult? Try these video lessons and learn fast.




comments powered by Disqus
↑ Back to top | Tablatures and chords are parodies/interpretations of the original songs. You may use it for private study, scholarship, research or language learning purposes only