» » »

Green Day, Fell For You Tabs (ver.2)

Artists:  A B C D E F G H I J K L M N O P Q R S T U V W X Y Z # 

Fell For You Tabs (ver.2)

Green Day Tabs
 Rating:
4/5 (4 votes)
Fell For You lessons Tabs too difficult? Try these video lessons and learn fast
                Instrument: Guitar
Submitter: GuitarPunk94

Feel free to rate + comment! Join the GreenDayCommunity(GDC) :-)

Standard Tuning



Key:
-  - Nothing
.  - Palm mute
~  - Let notes ring
7b - Bend string 
/ - Slide up or down




 Intro:          Verse 1:
    |2x********|
|---------------|------------|-------------|------------|
|-9--5-55-------|-7-9-7-9-7-9|-7-9-7-9-7-9-|7-9-7-9-----|
|-9--7b76-11/13-|-7-9-7-9-7-9|-7-967-967-96|7-967-9-----|
|-9-------12/14-|-7-9-7-9-7-9|-7-977-977-97|7-977-9-----|
|-7-------------|-5-7-5-7-5-7|-5-775-775-77|5-775-7-----|
|---------------|------------|----5---5---5|---5--0-----|

 Chorus:
              |2x*******|
|------------|------------|-------------|------------|
|---7-9---7-9|-----2-320--|--------109--|------------|
|-6-7-9-6-7-9|-----2-222--|-7767-999-9-7|7-99--6-----|
|-7-7-9-7-7-9|-4-2-2-222--|-7777-999-9-7|7-99--7-----|
|-7-5-7-7-5-7|-4-2-0-000--|-5545-777-7-5|5-77--7-----|
|-5-----5----|-2-0--------|-------------|------5-----|
                             ...  .      . .

 Verse 2:
|------------|-------------|------------|
|-7-9-7-9-7-9|-7-9-7-9-7-9-|7-9-7-9-----|
|-7-9-7-9-7-9|-7-967-967-96|7-967-9-----|
|-7-9-7-9-7-9|-7-977-977-97|7-977-9-----|
|-5-7-5-7-5-7|-5-775-775-77|5-775-7-----|
|------------|----5---5---5|---5--0-----|

 Chorus:
              |2x*******|
|------------|------------|-------------|------------|
|---7-9---7-9|-----2-320--|-7~-9~-109-77|-9\--9------|
|-6-7-9-6-7-9|-----2-222--|-7~-9~-9-9-77|-9\--9------|
|-7-7-9-7-7-9|-4-2-2-222--|-7~-9~-9-9-77|-9\--9------|
|-7-5-7-7-5-7|-4-2-0-000--|-5~-7~-7-7-55|-7\--7------|
|-5-----5----|-2-0--------|-------------|------------|
                                       .

Chorus/Outro:
    |2x********|
|---------------|------------|-------------|
|----5-55-------|------------|---9---------|
|----7b76-11/13-|-11/13-11/13|-6-9-6~------|
|---------12/14-|-12/14-12/14|-7-9-7~------|
|---------------|------------|-7-7-7~------|
|---------------|------------|-5-0-5~------|
            
Submit corrections

comments powered by Disqus
↑ Back to top | Green Day Tabs for Fell For You. Lyrics for acoustic guitar and electric guitar. Tablatures and chords are parodies/interpretations of the original songs. You may use it for private study, scholarship, research or language learning purposes only