» » »

Green Day, Emenius Sleepus Tabs (ver.4)

Artists:  A B C D E F G H I J K L M N O P Q R S T U V W X Y Z # 

Emenius Sleepus Tabs (ver.4)

Green Day Tabs
Rating:
0/5 (0 votes)
Emenius Sleepus lessons Tabs too difficult? Try these video lessons and learn fast
                Intro

eb|---------------------------------------------------------------------------|
Bb|---------------------------------------------------------------------------|
Gb|--4-4-4----------4-4-4----------4-4-4----------2-2-2-----------------------|
Db|--4-4-4-2--2-2-2-4-4-4-2--2-2-2-4-4-4-2--2-2-2-2-2-2-4--4-4-4--------------|
Ab|--2-2-2-2--2-2-2-2-2-2-2--2-2-2-2-2-2-2--2-2-2-0-0-0-4--4-4-4--------------|
Eb|--------0--0-0-0-------0--0-0-0-------0--0-0-0-------2--2-2-2--------------|





Verse 1  x2

eb|---------------------------------------------------------------------------|
Bb|---------------------------------------------------------------------------|
Gb|--4-4-4----------4-4-4----------4-4-4----------2-2-2-----------------------|
Db|--4-4-4-2--2-2-2-4-4-4-2--2-2-2-4-4-4-2--2-2-2-2-2-2-4--4-4-4--------------|
Ab|--2-2-2-2--2-2-2-2-2-2-2--2-2-2-2-2-2-2--2-2-2-0-0-0-4--4-4-4--------------|
Eb|--------0--0-0-0-------0--0-0-0-------0--0-0-0-------2--2-2-2--------------|





Chorus

eb|---------------------------------------------------------------------------|
Bb|---------------------------------------------------------------------------|
Gb|---------------------------------------------------------------------------|
Db|--2--2-2-2-2-2-4--4-4--4-4-4-2--2-2-2-2-2-4--4-4--4-4-4-2--2-2-2-2-2-2-----|
Ab|--2--2-2-2-2-2-4--4-4--4-4-4-2--2-2-2-2-2-4--4-4--4-4-4-2--2-2-2-2-2-2-----|
Eb|--0--0-0-0-0-0-2--2-2--2-2-2-0--0-0-0-0-0-2--2-2--2-2-2-0--0-0-0-0-0-0-----|

eb|---------------------------------------------------------------------------|
Bb|---------------------------------------------------------------------------|
Gb|---------------------------------------------------------------------------|
Db|--4--4-4-4-4-4-------------------------------------------------------------|
Ab|--4--4-4-4-4-4-------------------------------------------------------------|
Eb|--2--2-2-2-2-2-------------------------------------------------------------|







eb|---------------------------------------------------------------------------|
Bb|---------------------------------------------------------------------------|
Gb|--4-4-4----------4-4-4----------4-4-4----------2-2-2-----------------------|
Db|--4-4-4-2--2-2-2-4-4-4-4--4-4-4-4-4-4-2--2-2-2-2-2-2-4--4-4-4--------------|
Ab|--2-2-2-2--2-2-2-2-2-2-4--4-4-4-2-2-2-2--2-2-2-0-0-0-4--4-4-4--------------|
Eb|--------0--0-0-0-------2--2-2-2-------0--0-0-0-------2--2-2-2--------------|





Verse 2  x2

eb|---------------------------------------------------------------------------|
Bb|---------------------------------------------------------------------------|
Gb|--4-4-4----------4-4-4----------4-4-4----------2-2-2-----------------------|
Db|--4-4-4-2--2-2-2-4-4-4-2--2-2-2-4-4-4-2--2-2-2-2-2-2-4--4-4-4--------------|
Ab|--2-2-2-2--2-2-2-2-2-2-2--2-2-2-2-2-2-2--2-2-2-0-0-0-4--4-4-4--------------|
Eb|--------0--0-0-0-------0--0-0-0-------0--0-0-0-------2--2-2-2--------------|





Chorus

eb|---------------------------------------------------------------------------|
Bb|---------------------------------------------------------------------------|
Gb|---------------------------------------------------------------------------|
Db|--2--2-2-2-2-2-4--4-4--4-4-4-2--2-2-2-2-2-4--4-4--4-4-4-2--2-2-2-2-2-2-----|
Ab|--2--2-2-2-2-2-4--4-4--4-4-4-2--2-2-2-2-2-4--4-4--4-4-4-2--2-2-2-2-2-2-----|
Eb|--0--0-0-0-0-0-2--2-2--2-2-2-0--0-0-0-0-0-2--2-2--2-2-2-0--0-0-0-0-0-0-----|

eb|---------------------------------------------------------------------------|
Bb|---------------------------------------------------------------------------|
Gb|---------------------------------------------------------------------------|
Db|--4--4-4-4-4-4-------------------------------------------------------------|
Ab|--4--4-4-4-4-4-------------------------------------------------------------|
Eb|--2--2-2-2-2-2-------------------------------------------------------------|







eb|---------------------------------------------------------------------------|
Bb|---------------------------------------------------------------------------|
Gb|--4-4-4----------4-4-4----------4-4-4----------2-2-2-----------------------|
Db|--4-4-4-2--2-2-2-4-4-4-4--4-4-4-4-4-4-2--2-2-2-2-2-2-4--4-4-4-----(x2)-----|
Ab|--2-2-2-2--2-2-2-2-2-2-4--4-4-4-2-2-2-2--2-2-2-0-0-0-4--4-4-4--------------|
Eb|--------0--0-0-0-------2--2-2-2-------0--0-0-0-------2--2-2-2--------------|





Interlude

eb|-------------------------------------0-------------------------------------|
Bb|---------------------------------------0-----------------------------------|
Gb|--444-----------------------222----------2-------------(x3)----------------|
Db|--444-----------------------222--------------------------------------------|
Ab|--222-----------------------000--------------------------------------------|
Eb|---------------------------------------------------------------------------|

eb|---------------------------------------------------------------------------|
Bb|---------------------------------------------------------------------------|
Gb|--444-----------------------222------------2-2-2---------------------------|
Db|--444-----------------------222------------2-2-2-4--4-4-4------------------|
Ab|--222-----------------------000------------0-0-0-4--4-4-4------------------|
Eb|-------------------------------------------------2--2-2-2------------------|





Chorus

eb|---------------------------------------------------------------------------|
Bb|---------------------------------------------------------------------------|
Gb|---------------------------------------------------------------------------|
Db|--2--2-2-2-2-2-4--4-4--4-4-4-2--2-2-2-2-2-4--4-4--4-4-4-2--2-2-2-2-2-2-----|
Ab|--2--2-2-2-2-2-4--4-4--4-4-4-2--2-2-2-2-2-4--4-4--4-4-4-2--2-2-2-2-2-2-----|
Eb|--0--0-0-0-0-0-2--2-2--2-2-2-0--0-0-0-0-0-2--2-2--2-2-2-0--0-0-0-0-0-0-----|

eb|---------------------------------------------------------------------------|
Bb|---------------------------------------------------------------------------|
Gb|---------------------------------------------------------------------------|
Db|--4--4-4-4-4-4-------------------------------------------------------------|
Ab|--4--4-4-4-4-4-------------------------------------------------------------|
Eb|--2--2-2-2-2-2-------------------------------------------------------------|





Outro

eb|---------------------------------------------------------------------------|
Bb|---------------------------------------------------------------------------|
Gb|--4-4-4----------4-4-4----------4-4-4----------2-2-2-----------------------|
Db|--4-4-4-2--2-2-2-4-4-4-4--4-4-4-4-4-4-2--2-2-2-2-2-2-4--4-4-4-----(x2)-----|
Ab|--2-2-2-2--2-2-2-2-2-2-4--4-4-4-2-2-2-2--2-2-2-0-0-0-4--4-4-4--------------|
Eb|--------0--0-0-0-------2--2-2-2-------0--0-0-0-------2--2-2-2--------------|


eb|---------------------------------------------------------------------------|
Bb|---------------------------------------------------------------------------|
Gb|--4------------------------------------------------------------------------|
Db|--4------------------------------------------------------------------------|
Ab|--2------------------------------------------------------------------------|
Eb|---------------------------------------------------------------------------|

Lyrics=

I saw my friend the other day and I don't know
Exactly just what he became
It goes to show
It wasn't long ago
When I was just like you
And now I think I'm sick and I wanna go home

How have I been,how have you been
It's been so long
What have you done with all your time
And what went wrong

I knew you back when
And you ... you knew me
And now I think I'm sick and I wanna go home

Anybody ever say no?
Ever tell you that you weren't right?
Where did all the little kid go?
Did you lose it in a hateful fight?
And you know it's true

It wasn't long ago
when I was just like you
And now I think I'm sick and I wanna go home
            

comments powered by Disqus
↑ Back to top | Green Day Tabs for Emenius Sleepus. Lyrics for acoustic guitar and electric guitar. Tablatures and chords are parodies/interpretations of the original songs. You may use it for private study, scholarship, research or language learning purposes only