» » »

Green Day, East Jesus Nowhere Tabs (ver.2)

Artists:  A B C D E F G H I J K L M N O P Q R S T U V W X Y Z # 

East Jesus Nowhere Tabs (ver.2)

Green Day Tabs
 Rating:
4/5 (4 votes)
East Jesus Nowhere lessons Tabs too difficult? Try these video lessons and learn fast
1
                BAND: Green Day

This is my first tab so i hope it's good enough, and please don't be too
critical. if u have any suggestions please just comment.

Also it's pretty obvious but just so everyone knows the lyrics aren't in time with the tab at all.

please comment!


Intro - Gtr. 1
e|---------|-----------|
B|---------|-----------|
G|9-12-9-7-|9-x-xx-xx-x|
D|9-12-9-7-|9-x-xx-xx-x| x3
A|7-10-7-5-|7-x-xx-xx-x|
E|---------|-----------|

e|---------|-----------|
B|---------|-----------|
G|9-12-9-7-|9\---------|
D|9-12-9-7-|9\---------|
A|7-10-7-5-|7\---------|
E|---------|-----------|

Both Guitars now
e|---------|-----------|
B|---------|-----------|
G|9-12-9-7-|9-x-xx-xx-x|
D|9-12-9-7-|9-x-xx-xx-x| x3
A|7-10-7-5-|7-x-xx-xx-x|
E|---------|-----------|

e|---------|-----------|
B|---------|-----------|
G|9-12-9-7-|9\---7-----|
D|9-12-9-7-|9\---7--7--|
A|7-10-7-5-|7\---5--7--|
E|---------|--------5--|

Verse
e|-----------|-----------|
B|-----------|-----------|
G|9-x-xx-xx-x|x-xx-x-7---|
D|9-x-xx-xx-x|x-xx-x-7-7-| x4
A|7-x-xx-xx-x|x-xx-x-5-7-|
E|-----------|---------5-|
Raise your hands now to testify
Your confession will be crucified
You're a sacrificial suicide
Like a dog thats been sodomized

e|---------|-----------|
B|---------|-----------|
G|9-12-9-7-|9-x-xx-xx-x|
D|9-12-9-7-|9-x-xx-xx-x| x3
A|7-10-7-5-|7-x-xx-xx-x|
E|---------|-----------|
 Stand up!   all the white boys
 Stand down! and the black girls
 Stand up!   you're the soldiers

e|---------|-----------|
B|---------|-----------|
G|9-12-9-7-|9\---7-----|
D|9-12-9-7-|9\---7--7--|
A|7-10-7-5-|7\---5--7--|
E|---------|--------5--|
  Stand down! of the new world!

e|--------|--------|
B|--------|--------|
G|--------|----77--|
D|99999999|99997777| x3
A|99999999|99995577|
E|77777777|7777--55|
Put your faith in a miracle
And it's non-demoninational
Join the choir we'll be singing here

e|--------|--------|
B|--------|--------|
G|--------|77777777|
D|99999999|77777777|
A|99999999|55555555|
E|77777777|--------|
In the church of wishful thinking!

Chorus - Both guitars
e|--------|--------|--------|------------|
B|--------|--------|--------|------------|
G|--------|--------|--------|------------|
D|22222222|55555555|77777777|101010109999| x2
A|22222222|55555555|77777777|101010109999|
E|00000000|33333333|55555555|8-8-8-8-7777|
  A fire burns today, of blasphemy and genocide
  The sirens of decay, will infiltrate the faith fanatics

Post chorus
e|---------|-----------|---------|-----------|
B|---------|-----------|---------|-----------|
G|9-12-9-7-|9-x-xx-xx-x|9-12-9-7-|9-x-xx-xx-x|
D|9-12-9-7-|9-x-xx-xx-x|9-12-9-7-|9-x-xx-xx-x|
A|7-10-7-5-|7-x-xx-xx-x|7-10-7-5-|7-x-xx-xx-x|
E|---------|-----------|---------|-----------|
 |
e|---------|-----------|---------|-----------|
B|---------|-----------|---------|-----------|
G|9------13|16------19-|17-----14|13---------|
D|x------x-|x-------x--|x------x-|x----------|
A|7------11|14------17-|15-----12|11---------|
E|---------|-----------|---------|-----------|

e|---------|-----------|---------|-----------|
B|---------|-----------|---------|-----------|
G|9-12-9-7-|9-x-xx-xx-x|9-12-9-7-|9------7---|
D|9-12-9-7-|9-x-xx-xx-x|9-12-9-7-|9------7-7-|
A|7-10-7-5-|7-x-xx-xx-x|7-10-7-5-|7------5-7-|
E|---------|-----------|---------|---------5-|
 |
e|---------|-----------|---------|-----------|
B|---------|-----------|---------|-----------|
G|9------13|16------19-|17-----14|13---------|
D|x------x-|x-------x--|x------x-|x----------|
A|7------11|14------17-|15-----12|11---------|
E|---------|-----------|---------|-----------|


Verse (this part of the song is all on bass but i tabbed it out to guitar just for 
who wants to learn it)
e|--------|--------|--------|--------|
B|--------|--------|--------|--------|
G|--------|--------|--------|--------|
D|--------|--------|------00|------00| x2
A|--------|--------|2-2-22--|2-2-22--|
E|0-0-0000|3-3-3333|--------|--------|
  Oh bless me lord for i have sinned
  It's been a lifetime since i last confessed

e|--------|--------|--------|--------|
B|--------|--------|--------|--------|
G|--------|--------|--------|--------|
D|2-2-2222|--------|------00|------00|
A|--------|--------|2-2-22--|2-2-22--|
E|--------|3-3-3333|--------|--------|
  I threw my crutches in the river of the shadow of doubt

e|--------|--------|--------|--------|
B|--------|--------|--------|--------|
G|--------|--------|--------|----7---|
D|--------|--------|------00|----7-7-|
A|--------|--------|2-2-22--|2---5-7-|
E|0-0-0000|3-3-3333|--------|------5-|
  And I'll be dressed up in my sunday best

e|-----------|----------|
B|-----------|----------|
G|-----------|------7---|
D|9-x-xx-xx-x|x-xx-x7-7-| x3
A|9-x-xx-xx-x|x-xx-x5-7-|
E|7-x-xx-xx-x|x-xx-x--5-|
  Say a prayer for the family
  Drop a coin for humanity
  Ain't this uniform so flattering?

e|--------|--------|
B|--------|--------|
G|--------|77777777|
D|99999999|77777777|
A|99999999|55555555|
E|77777777|--------|
  I never asked you a god damned thing!


Chorus - Both guitars
e|--------|--------|--------|------------|
B|--------|--------|--------|------------|
G|--------|--------|--------|------------|
D|22222222|55555555|77777777|101010109999| x2
A|22222222|55555555|77777777|101010109999|
E|00000000|33333333|55555555|8-8-8-8-7777|
  A fire burns today, of blasphemy and genocide
  The sirens of decay, will infiltrate the faith fanatics


Post chorus
e|---------|-----------|---------|-----------|
B|---------|-----------|---------|-----------|
G|9-12-9-7-|9-x-xx-xx-x|9-12-9-7-|9-x-xx-xx-x|
D|9-12-9-7-|9-x-xx-xx-x|9-12-9-7-|9-x-xx-xx-x|
A|7-10-7-5-|7-x-xx-xx-x|7-10-7-5-|7-x-xx-xx-x|
E|---------|-----------|---------|-----------|
 |
e|---------|-----------|---------|-----------|
B|---------|-----------|---------|-----------|
G|9------13|16------19-|17-----14|13---------|
D|x------x-|x-------x--|x------x-|x----------|
A|7------11|14------17-|15-----12|11---------|
E|---------|-----------|---------|-----------|

e|---------|-----------|---------|-----------|
B|---------|-----------|---------|-----------|
G|9-12-9-7-|9-x-xx-xx-x|9-12-9-7-|9----------|
D|9-12-9-7-|9-x-xx-xx-x|9-12-9-7-|9----------|
A|7-10-7-5-|7-x-xx-xx-x|7-10-7-5-|7----------|
E|---------|-----------|---------|-----------|
 |
e|---------|-----------|---------|-----------|
B|---------|-----------|---------|-----------|
G|9------13|16------19-|17-----14|13---------|
D|x------x-|x-------x--|x------x-|x----------|
A|7------11|14------17-|15-----12|11---------|
E|---------|-----------|---------|-----------|


Bridge?
e|--------|--------|
B|--------|--------|
G|99999999|9-------|
D|99999999|9-------|
A|77777777|7-------|
E|--------|--------|
            Don't test me
            Second guess me
            Protest me

e|--------|--------|
B|--------|--------|
G|--9---9-|--9-7---|
D|--9---9-|--9-7-7-|
A|--7---7-|--7-5-7-|
E|--------|------5-|
  You will disappear


e|-----------|----------|
B|-----------|----------|
G|-----------|------7---|
D|9-x-xx-xx-x|x-xx-x7-7-| x3
A|9-x-xx-xx-x|x-xx-x5-7-|
E|7-x-xx-xx-x|x-xx-x--5-|
  I wanna know who's allowed to breed
  All the dogs who never learned to read
  Missionary poloticians

e|--------|--------|
B|--------|--------|
G|--------|77777777|
D|99999999|77777777|
A|99999999|55555555|
E|77777777|--------|
  And the cops of a new religion

Solo:
e|---------------------------------------|
B|5---5--7/8---8---10---10--12/13----12--|
G|--4--------7---7----9-----------12---11|
D|---------------------------------------|
A|---------------------------------------|
E|---------------------------------------|

e|12----12-14-10---10---12----12-14/15----14----12b| Let ring
B|---12----------9----9----12----------15----------|
G|-------------------------------------------------|
D|-------------------------------------------------|
A|-------------------------------------------------|
E|-------------------------------------------------|


while solo fades out guitar 2 plays this
e|---------|-----------|---------|-----------|
B|---------|-----------|---------|-----------|
G|9------13|16------19-|17-----14|13---------|
D|x------x-|x-------x--|x------x-|x----------| x4
A|7------11|14------17-|15-----12|11---------|
E|---------|-----------|---------|-----------|


e|--------|--------|---------|--------|
B|--------|--------|---------|--------|
G|9-------|16------|18-------|21--20--|
D|x-------|x-------|x--------|x---x---| x2
A|7-------|14------|16-------|19--18--|
E|--------|--------|---------|--------|
  A fire burns today, of blasphemy and genocide
  The sirens of decay, will infiltrate the inside

(Leave 2 bars silent and then this:)

e|---------|-----------|---------|-----------|
B|---------|-----------|---------|-----------|
G|9-12-9-7-|9-x-xx-xx-x|9-12-9-7-|9-x-xx-xx-x|
D|9-12-9-7-|9-x-xx-xx-x|9-12-9-7-|9-x-xx-xx-x|
A|7-10-7-5-|7-x-xx-xx-x|7-10-7-5-|7-x-xx-xx-x|
E|---------|-----------|---------|-----------|
 |
e|---------|-----------|---------|-----------|
B|---------|-----------|---------|-----------|
G|9------13|16------19-|17-----14|13---------|
D|x------x-|x-------x--|x------x-|x----------|
A|7------11|14------17-|15-----12|11---------|
E|---------|-----------|---------|-----------|

e|---------|-----------|---------|-----------|
B|---------|-----------|---------|-----------|
G|9-12-9-7-|9-x-xx-xx-x|9-12-9-7-|9------7---|
D|9-12-9-7-|9-x-xx-xx-x|9-12-9-7-|9------7-7-|
A|7-10-7-5-|7-x-xx-xx-x|7-10-7-5-|7------5-7-|
E|---------|-----------|---------|---------5-|
 |
e|---------|-----------|---------|-----------|
B|---------|-----------|---------|-----------|
G|9------13|16------19-|17-----14|13---------|
D|x------x-|x-------x--|x------x-|x----------|
A|7------11|14------17-|15-----12|11---------|
E|---------|-----------|---------|-----------|

e|--------|--------|
B|--------|--------|
G|9-------|9999----|
D|9(DRUMS)|9999----|
A|7-------|7777----|
E|--------|--------|
            
Submit corrections

comments powered by Disqus
↑ Back to top | Green Day Tabs for East Jesus Nowhere. Lyrics for acoustic guitar and electric guitar. 1 Tablatures and chords are parodies/interpretations of the original songs. You may use it for private study, scholarship, research or language learning purposes only