» » »

Do Da Da Tabs (ver.2)

Artists:  A B C D E F G H I J K L M N O P Q R S T U V W X Y Z # 

Do Da Da Tabs (ver.2)

Green Day
Rating:
0/5 (0 votes)

Tabs too difficult? Try these video lessons and learn fast.
                Intro
   A5   E5  E5   (x3)  D5   E5
e|---------------------------------------------------------------|
B|---------------------------------------------------------------|
G|----------9-9--------7----9------------------------------------|
D|-7----2-2-9-9--------7----9------------------------------------|
A|-7----2-2-7-7--------5----7------------------------------------|
E|-5----0-0------------------------------------------------------|

Verse (x2)
   A5   E5   D5   A5 E5
e|---------------------------------------------------------------|
B|---------------------------------------------------------------|
G|-----------7---------------------------------------------------|
D|-7----2----7----7--2-------------------------------------------|
A|-7----2----5----7--2-------------------------------------------|
E|-5----0---------5--0-------------------------------------------|

Chorus
   F#5  D5   F#5  A5 E5   F#5  D5   F#5
e|---------------------------------------------------------------|
B|---------------------------------------------------------------|
G|------7----------------------7----------(intro)----------------|
D|-4----7----4----7--2----4----7----4----------------------------|
A|-4----5----4----7--2----4----5----4----------------------------|
E|-2---------2----5--0----2---------2----------------------------|


Lyrics

Every time I'm falling now
You take the repercussions
Headaches and anxiety
Advancing my frustrations

Rush into my depression
Sacrifice everything
Waste with me into nothing
Well now you're stuck with me
Stuck with me
Stuck with me

Handcuff your soul to my wrist
And I'll vow my trust to you
Moving in I always thought
I realize you've imagined

(Chorus)
(Bridge)
(Chorus)
            
Tabs too difficult? Try these video lessons and learn fast.


comments powered by Disqus
↑ Back to top | Tablatures and chords are parodies/interpretations of the original songs. You may use it for private study, scholarship, research or language learning purposes only