>
 >
Deadbeat Holiday 4

Deadbeat Holiday 4 Guitar Tabs

Green Day - Deadbeat Holiday 4 chords, tabs, tablatures, lyrics

Guitar lessons | Add/correct | Request | Top 50 tabs Artists:  A B C D E F G H I J K L M N O P Q R S T U V W X Y Z 0-9

Deadbeat Holiday 4 Guitar Tabs – Green Day

CD, Sheet music, Poster

Do you like Deadbeat Holiday 4? Share with your friends now
Bass TabsChordsTabsTabs v2Tabs v3Tabs v4Tabs v5Ukulele
Band-Greenday
Song- Holiday
Album- American Idiot

this  is for the voice on guitar
Tempo=142 Triplet feel Triplet 8th
Key signature 4 flats
4/4

 W             W                  W                   W
|-------------|------------------|--------------------|-------------------|
|-------------|------------------|--------------------|-------------------|
|-------------|------------------|--------------------|-------------------|
|-------------|------------------|--------------------|-------------------|
|-------------|------------------|--------------------|-------------------|
|-------------|------------------|--------------------|-------------------|

 W              W                  W                    W
|-------------|------------------|--------------------|-------------------|
|-------------|------------------|--------------------|-------------------|
|-------------|------------------|--------------------|-------------------|
|-------------|------------------|--------------------|-------------------|
|-------------|------------------|--------------------|-------------------|
|-------------|------------------|--------------------|-------------------|

 W              W                  W                    W
|-------------|------------------|--------------------|-------------------|
|-------------|------------------|--------------------|-------------------|
|-------------|------------------|--------------------|-------------------|
|-------------|------------------|--------------------|-------------------|
|-------------|------------------|--------------------|-------------------|
|-------------|------------------|--------------------|-------------------|

 Verse 1

 Q   E  E   Q   E   E    Q    Q   H        Q  E  E Q E E
|---------------------|------------------|----------------|
|----6--6---6---6---6-|--4----6---4------|----1--2-2-2-2--|
|---------------------|------------------|----------------|
|---------------------|------------------|----------------|
|---------------------|------------------|----------------|
|---------------------|------------------|----------------|

  Q  Q  Q  Q    Q E E Q   E E      Q   Q    Q   Q
|-------------|------------------|--------------------|
|-1--1--1--1--|-----1--2----2----|-1---1--------------|
|-------------|------------------|----------3---1-----|
|-------------|-3----------------|--------------------|
|-------------|------------------|--------------------|
|-------------|------------------|--------------------|

  Q   E E +H    +Q   Q   H
|-------------|------------------|
|-1---4-1-(1)-|-(1)--------------|
|-------------|------------------|
|-------------|------------------|
|-------------|------------------|
|-------------|------------------|

  Q  E  E   Q   E   E    Q    Q   H        Q  E  E Q E E
|---------------------|------------------|----------------|
|----6--6---6---6---6-|--4----6---4------|----1--2-2-2-2--|
|---------------------|------------------|----------------|
|---------------------|------------------|----------------|
|---------------------|------------------|----------------|
|---------------------|------------------|----------------|

  Q  Q  Q  Q    Q E E Q   E E      E E  Q    Q   Q
|-------------|------------------|---------------------|
|-1--1--1--1--|-----1--2----2----|-1-1--1--------------|
|-------------|------------------|-----------3---1-----|
|-------------|-3----------------|---------------------|
|-------------|------------------|---------------------|
|-------------|------------------|---------------------|

  Q   E E +H    +H     H
|-------------|------------------|
|-1---4-1-(1)-|-(1)--------------|
|-------------|------------------|
|-------------|------------------|
|-------------|------------------|
|-------------|------------------|

Chorus
  Q  Q  Q  Q    E  E +E   E +E   E  +Q
|-------------|------------------------------|
|----6--6--6--|-6--4-(2)--2-(2)--2--(2)------|
|-------------|------------------------------|
|-------------|------------------------------|
|-------------|------------------------------|
|-------------|------------------------------|

  Q  Q  E  E   +E  E   +Q Q H
|--------------------|----------|
|-4--4--2--1---------|----------|
|--------------(3)-3-|-(2)------|
|--------------------|----------|
|--------------------|----------|
|--------------------|----------|

  Q Q  Q  E  E     +E E  +E   E  +E   E  +Q
|---------------|------------------------------|
|---6--6--6--6--|-(6)-4--(2)--2--(2)--2--(4)---|
|---------------|------------------------------|
|---------------|------------------------------|
|---------------|------------------------------|
|---------------|------------------------------|

  Q Q E  Q  E     W     Q Q  Q E E    +W            +W
|--------------|------|-------------|-------------|--------------|
|-4---1--4--4--|-(4)--|---1--1-4-6--|-(6)---------|-(6)----------|
|--------------|------|-------------|-------------|--------------|
|--------------|------|-------------|-------------|--------------|
|--------------|------|-------------|-------------|--------------|
|--------------|------|-------------|-------------|--------------|

Verse 2

  Q  E  E   Q   E   E    Q    Q   H        E E E E Q E E
|---------------------|------------------|----------------|
|----6--6---6---6---6-|--4----6---4------|---1-1-1-2-2-2--|
|---------------------|------------------|----------------|
|---------------------|------------------|----------------|
|---------------------|------------------|----------------|
|---------------------|------------------|----------------|

  Q  Q  Q  Q    Q E E Q  E E       Q   Q    Q   Q
|-------------|------------------|--------------------|
|-1--1--1--1--|-----1-2----2-----|-1---1--------------|
|-------------|------------------|----------3---1-----|
|-------------|-3----------------|--------------------|
|-------------|------------------|--------------------|
|-------------|------------------|--------------------|


  Q   E E +H    +Q   Q   H
|-------------|------------------|
|-1---4-1-(1)-|-(1)--------------|
|-------------|------------------|
|-------------|------------------|
|-------------|------------------|
|-------------|------------------|

  Q  E  E   Q   E   E    Q    Q   H        Q  E  E Q E E
|---------------------|------------------|----------------|
|----6--6---6---6---6-|--4----6---4------|----1--2-2-2-2--|
|---------------------|------------------|----------------|
|---------------------|------------------|----------------|
|---------------------|------------------|----------------|
|---------------------|------------------|----------------|

  Q  Q  Q  Q    Q E E Q   E E      E E  Q    Q   E E
|-------------|------------------|---------------------|
|-1--1--1--1--|-----1--2----2----|-1-1--1--------------|
|-------------|------------------|-----------3---1-1---|
|-------------|-3----------------|---------------------|
|-------------|------------------|---------------------|
|-------------|------------------|---------------------|

  Q   E E +H    +H     H
|-------------|------------------|
|-1---4-1-(1)-|-(1)--------------|
|-------------|------------------|
|-------------|------------------|
|-------------|------------------|
|-------------|------------------|

Chorus
  Q  Q  Q  Q    E  E +E   E +E   E  +Q
|-------------|------------------------------|
|----6--6--6--|-6--4-(2)--2-(2)--2--(2)------|
|-------------|------------------------------|
|-------------|------------------------------|
|-------------|------------------------------|
|-------------|------------------------------|

  Q  Q  E  E    E  E   +Q Q H
|--------------------|----------|
|-4--4--2--1---------|----------|
|---------------3--3-|-(3)------|
|--------------------|----------|
|--------------------|----------|
|--------------------|----------|

  Q Q  Q  E  E     E E  +E   E  +E   E  Q
|---------------|---------------------------|
|---6--6--6--6--|--6-4--(2)--2--(2)--2--4---|
|---------------|---------------------------|
|---------------|---------------------------|
|---------------|---------------------------|
|---------------|---------------------------|

  Q Q E  Q  E     W     Q Q  Q E E    +H   H
|--------------|------|-------------|-------------|
|-4---1--4--4--|-(4)--|---1--1-4-6--|-(6)---------|
|--------------|------|-------------|-------------|
|--------------|------|-------------|-------------|
|--------------|------|-------------|-------------|
|--------------|------|-------------|-------------|


W             W                  W                   W
|-------------|------------------|--------------------|-------------------|
|-------------|------------------|--------------------|-------------------|
|-------------|------------------|--------------------|-------------------|
|-------------|------------------|--------------------|-------------------|
|-------------|------------------|--------------------|-------------------|
|-------------|------------------|--------------------|-------------------|

 W              W                  W                    W
|-------------|------------------|--------------------|-------------------|
|-------------|------------------|--------------------|-------------------|
|-------------|------------------|--------------------|-------------------|
|-------------|------------------|--------------------|-------------------|
|-------------|------------------|--------------------|-------------------|
|-------------|------------------|--------------------|-------------------|

 W              W                  W                    W
|-------------|------------------|--------------------|-------------------|
|-------------|------------------|--------------------|-------------------|
|-------------|------------------|--------------------|-------------------|
|-------------|------------------|--------------------|-------------------|
|-------------|------------------|--------------------|-------------------|
|-------------|------------------|--------------------|-------------------|

This bit is spoken not singing

W             W                  W                   W
|-------------|------------------|--------------------|-------------------|
|-------------|------------------|--------------------|-------------------|
|-------------|------------------|--------------------|-------------------|
|-------------|------------------|--------------------|-------------------|
|-------------|------------------|--------------------|-------------------|
|-------------|------------------|--------------------|-------------------|

 W              W                  W                    W
|-------------|------------------|--------------------|-------------------|
|-------------|------------------|--------------------|-------------------|
|-------------|------------------|--------------------|-------------------|
|-------------|------------------|--------------------|-------------------|
|-------------|------------------|--------------------|-------------------|
|-------------|------------------|--------------------|-------------------|

 W              W                  W                    W
|-------------|------------------|--------------------|-------------------|
|-------------|------------------|--------------------|-------------------|
|-------------|------------------|--------------------|-------------------|
|-------------|------------------|--------------------|-------------------|
|-------------|------------------|--------------------|-------------------|
|-------------|------------------|--------------------|-------------------|


W             W                  W                   W
|-------------|------------------|--------------------|-------------------|
|-------------|------------------|--------------------|-------------------|
|-------------|------------------|--------------------|-------------------|
|-------------|------------------|--------------------|-------------------|
|-------------|------------------|--------------------|-------------------|
|-------------|------------------|--------------------|-------------------|

 W              W                  W                    W
|-------------|------------------|--------------------|-------------------|
|-------------|------------------|--------------------|-------------------|
|-------------|------------------|--------------------|-------------------|
|-------------|------------------|--------------------|-------------------|
|-------------|------------------|--------------------|-------------------|
|-------------|------------------|--------------------|-------------------|


W              W                  W                    W
|-------------|------------------|--------------------|-------------------|
|-------------|------------------|--------------------|-------------------|
|-------------|------------------|--------------------|-------------------|
|-------------|------------------|--------------------|-------------------|
|-------------|------------------|--------------------|-------------------|
|-------------|------------------|--------------------|-------------------|


W             W                  W                   W
|-------------|------------------|--------------------|-------------------|
|-------------|------------------|--------------------|-------------------|
|-------------|------------------|--------------------|-------------------|
|-------------|------------------|--------------------|-------------------|
|-------------|------------------|--------------------|-------------------|
|-------------|------------------|--------------------|-------------------|

 W              W                  W                    W
|-------------|------------------|--------------------|-------------------|
|-------------|------------------|--------------------|-------------------|
|-------------|------------------|--------------------|-------------------|
|-------------|------------------|--------------------|-------------------|
|-------------|------------------|--------------------|-------------------|
|-------------|------------------|--------------------|-------------------|

 W              W                  W                    W
|-------------|------------------|--------------------|-------------------|
|-------------|------------------|--------------------|-------------------|
|-------------|------------------|--------------------|-------------------|
|-------------|------------------|--------------------|-------------------|
|-------------|------------------|--------------------|-------------------|
|-------------|------------------|--------------------|-------------------|

W             W                  W                   W
|-------------|------------------|--------------------|-------------------|
|-------------|------------------|--------------------|-------------------|
|-------------|------------------|--------------------|-------------------|
|-------------|------------------|--------------------|-------------------|
|-------------|------------------|--------------------|-------------------|
|-------------|------------------|--------------------|-------------------|

 W              W                  W                    W
|-------------|------------------|--------------------|-------------------|
|-------------|------------------|--------------------|-------------------|
|-------------|------------------|--------------------|-------------------|
|-------------|------------------|--------------------|-------------------|
|-------------|------------------|--------------------|-------------------|
|-------------|------------------|--------------------|-------------------|

 W              W                  W                    W
|-------------|------------------|--------------------|-------------------|
|-------------|------------------|--------------------|-------------------|
|-------------|------------------|--------------------|-------------------|
|-------------|------------------|--------------------|-------------------|
|-------------|------------------|--------------------|-------------------|
|-------------|------------------|--------------------|-------------------|

W              W
|-------------|------------------|
|-------------|------------------|
|-------------|------------------|
|-------------|------------------|
|-------------|------------------|
|-------------|------------------|

 Q  Q  H         W
|-------------|------------------|
|---4--4------|------------------|
|-------------|------------------|
|-------------|------------------|
|-------------|------------------|
|-------------|------------------|

  Q   Q  Q  Q   E  Q  E  +E  Q  E
|-------------|-------------------|
|-----4--4--4-|-6--4--2--(2)-4--6-|
|-------------|-------------------|
|-------------|-------------------|
|-------------|-------------------|
|-------------|-------------------|

Chorus
  Q  Q  Q  Q    E  E +E   E +E   E  +Q
|-------------|------------------------------|
|----6--6--6--|-6--4-(2)--2-(2)--2--(2)------|
|-------------|------------------------------|
|-------------|------------------------------|
|-------------|------------------------------|
|-------------|------------------------------|

  Q  Q  E  E    E  E   +Q Q H
|--------------------|----------|
|-4--4--2--1---------|----------|
|---------------3--3-|-(3)------|
|--------------------|----------|
|--------------------|----------|
|--------------------|----------|

  Q Q  Q  E  E     E E  +E   E  +E   E  Q
|---------------|---------------------------|
|---6--6--6--6--|--6-4--(2)--2--(2)--2--4---|
|---------------|---------------------------|
|---------------|---------------------------|
|---------------|---------------------------|
|---------------|---------------------------|

  Q Q E  Q  E    +W
|--------------|------|
|-4---1--4--4--|-(4)--|
|--------------|------|
|--------------|------|
|--------------|------|
|--------------|------|


Chorus
  Q  Q  Q  Q    E  E +E   E +E   E  +Q
|-------------|------------------------------|
|----6--6--6--|-6--4-(2)--2-(2)--2--(2)------|
|-------------|------------------------------|
|-------------|------------------------------|
|-------------|------------------------------|
|-------------|------------------------------|

  Q  Q  E  E    E  E   +Q Q H
|--------------------|----------|
|-4--4--2--1---------|----------|
|---------------3--3-|-(3)------|
|--------------------|----------|
|--------------------|----------|
|--------------------|----------|


  Q Q  Q  E  E     E E  +E   E  +E   E  Q
|---------------|---------------------------|
|---6--6--6--6--|--6-4--(2)--2--(2)--2--4---|
|---------------|---------------------------|
|---------------|---------------------------|
|---------------|---------------------------|
|---------------|---------------------------|

  Q Q E  Q  E     W     +H  H   Q  Q  Q  E E
|--------------|------|-------|----------------|
|-4---1--4--4--|-(4)--|-(1)---|----4--4--4-6---|
|--------------|------|-------|----------------|
|--------------|------|-------|----------------|
|--------------|------|-------|----------------|
|--------------|------|-------|----------------|

  +Q  Q E Q E
|--------------|
|-(6)-4-2-4-6--|
|--------------|
|--------------|
|--------------|
|--------------|


  +W            +W                 +W                   +W
|-------------|------------------|--------------------|-------------------|
|-(6)---------|-(6)--------------|-(6)----------------|-(6)---------------|
|-------------|------------------|--------------------|-------------------|
|-------------|------------------|--------------------|-------------------|
|-------------|------------------|--------------------|-------------------|
|-------------|------------------|--------------------|-------------------|

 +W              W                  W                    W       W
|-------------|------------------|--------------------|-------|------------|
|-(6)---------|------------------|--------------------|-------|------------|
|-------------|------------------|--------------------|-------|------------|
|-------------|------------------|--------------------|-------|------------|
|-------------|------------------|--------------------|-------|------------|
|-------------|------------------|--------------------|-------|------------|

Duration Legend ---------------
W - whole; H - half; Q - quarter; E - 8th; S - 16th; T - 32nd; X - 64th;
a - acciaccatura
+ - note tied to previous;
. - note dotted;
.. - note double dotted

Uncapitalized letters represent notes that are staccato (1/2 duration) Irregular
are notated above the duration line Duration letters will always appear directly above the
number it represents the duration for. Duration letters with no fret number below them 
rests. Multi- bar rests are notated in the form Wxn, where n is the number of bars to
for. Low melody durations appear below the staff Tablature

Legend ----------------
h - hammer-on
p - pull-off
b - bend
pb - pre-bend
r - bend release (
if no number after the r, then release immediately)
/\ - slide into or out of (from/to "nowhere")
s - legato slide
S - shift slide
[n] - natural harmonic
n- artificial harmonic
(n)- tapped harmonic
 ~ - vibrato
tr - trill
T - tap
TP - trem. picking
PM - palm muting
\n/ - tremolo bar dip;
n = amount to dip
\n - tremolo bar down
n/ - tremolo bar up
/n\ - tremolo bar inverted dip
= - hold bend; also acts as connecting device for hammers/pulls
 <> - volume swell (louder/softer)
x - on rhythm slash represents muted slash
o - on rhythm slash represents single note slash

Misc Legend -----------
|   - bar
||  - double bar
||o - repeat start
o|| - repeat end
*|  - double bar (ending)
:   - bar (freetime)
$ - Segno & - Coda Tempo markers -
= BPM(8/16=s8/s16), where s8 = swing 8ths, s16 = swing 16ths





Comments


Popular Green Day tabs & chords
Blood, Sex & Booze 1 Bass Tabs
Deadbeat Holiday 1 Bass Tabs
Brain Stew 1 Chords
Extraordinary Girl 1 Chords
Outsider Chords
Church On Sunday Drum Tabs
Chump 2 Tabs
Disappearing Boy  2 Tabs
Electric Time Of Your Life Tabs
Paper Lanterns Tabs


Song lyrics



↑ Back to top | Tablatures and chords are parodies/interpretations of the original songs. You may use it for private study, scholarship, research or language learning purposes only
© 2014 AZChords.com Contact us | Privacy policy | DMCA | Add/correct tabs | Request tabs | Top 50 tabs