>
 >
Cigarettes And Valentines 1

Cigarettes And Valentines 1 Guitar Tabs

Green Day - Cigarettes And Valentines 1 chords, tabs, tablatures, lyrics

Guitar lessons | Add/correct | Request | Top 50 tabs Artists:  A B C D E F G H I J K L M N O P Q R S T U V W X Y Z 0-9

Cigarettes And Valentines 1 Guitar Tabs – Green Day

CD, Sheet music, Poster

Do you like Cigarettes And Valentines 1? Share with your friends now
Bass TabsChordsChords v2TabsTabs v2Tabs v3Ukulele
----------------------------------------------------------------------------
	Cigarettes and Valentines - Green Day v2.01
----------------------------------------------------------------------------
	Cigarettes and Valentines - Green Day v2.01
----------------------------------------------------------------------------

Tuning: Standard

- My first Tabs but I think they’re 100% right

Intro:
e|-------------------|x3|--------------------------------------|to next row|
B|-------------------|x3|--------------------------------------|to next row|
G|-------------9-999-|x3|6666666666666644-4-----44-4-----------|to next row|
D|-4-4-444-999-9-999-|x3|6666666666666644-44----44-44/---------|to next row|
A|-4-4-444-999-7-777-|x3|4444444444444422-24----22-24/---------|to next row|
E|-2-2-222-777-------|x3|------------------2--------2/---------|to next row|

e|------------------------------------------|to next row|------------------|
B|------------------------------------------|to next row|------------------|
G|------1-1-111-6-6666666-------------------|to next row|------------------|
D|-4----2-2-222-6-6666666-4-4-4444-444444444|to next row|------------------|
A|-4----2-2-222-4-4444446-4-4-4444-444444444|to next row|------------------|
E|-2----0-0-000-----------2-2-2222-222222222|to next row|------------------|

Verse (this time x3):
e|-------------------------------------------------------------|-----|-----|
B|-------------------------------------------------------------|-----|-----|
G|-1-1-111---------------------------------1-1-111-------------|whole|-----|
D|-2-2-222-4-444444444--4-4-4444-444444444-2-2-222-4-444444444-|Verse|-----|
A|-2-2-222-4-444444444--4-4-4444-444444444-2-2-222-4-444444444-|x3---|-----|
E|-0-0-000-2-222222444--2-2-2222-222222222-0-0-000-2-222222222-|-----|-----|

Intro 2:
e|-------------------|x3|----------------|to next row|---------------------|
B|-------------------|x3|----------------|to next row|---------------------|
G|-------------9-999-|x3|6666666666666644|to next row|---------------------|
D|-4-4-444-999-9-999-|x3|6666666666666644|to next row|---------------------|
A|-4-4-444-999-7-777-|x3|4444444444444422|to next row|---------------------|
E|-2-2-222-777-------|x3|----------------|to next row|---------------------|

Then Verse again (only x2):
e|----------------------------------------------------------|to next row|--|
B|----------------------------------------------------------|to next row|--|
G|-------------------1-1-111--------------------------------|to next row|--|
D|4-4-4444-444444444-2-2-222-4-444444444--4-4-4444-444444444|to next row|--|
A|4-4-4444-444444444-2-2-222-4-444444444--4-4-4444-444444444|to next row|--|
E|2-2-2222-222222222-0-0-000-2-222222222--2-2-2222-222222222|to next row|--|
e|----------------------------------------------------------|to next row|--|

e|--------------------|-----|----------------------------------------------|
B|--------------------|-----|----------------------------------------------|
G|-1-1-111------------|whole|----------------------------------------------|
D|-2-2-222-4-444444444|Verse|----------------------------------------------|
A|-2-2-222-4-444444444|x2---|----------------------------------------------|
E|-0-0-000-2-222222222|-----|----------------------------------------------|

Chorus:
e|--------------------|x3|--------------------------|to next row|----------|
B|--------------------|x3|--------------------------|to next row|----------|
G|-4-4-111------------|x3|1-1-111-6-6666666-6666666-|to next row|----------|
D|-4-4-222-4-444444444|x3|2-2-222-6-6666666-6666666-|to next row|----------|
A|-2-2-222-4-444444444|x3|2-2-222-4-4444444-4444444-|to next row|----------|
E|-----000-2-222222222|x3|0-0-000-------------------|to next row|----------|

Solo accompaniment (Billie Joe, Guitar 1):

Play Verse row two times!!!

Solo (Jason White, Guitar 2)
e|----------------------------------------------------|to next row|--------|
B|--11-11-11--11-10-11--11--11----------11-11--11--11-|to next row|--------|
G|--11-111111111110-111111111111-9-8-64-11-1111111111-|to next row|--------|
D|--x--x-x-x-x-x-x--x-x-x-x-x-x--x-x-xx-x--x-x-x-x-x--|to next row|--------|
A|--9--9-9-9-9-9-8--7-7-7-7-7-7--7-6-42-9--9-9-9-9-9--|to next row|--------|
E|----------------------------------------------------|to next row|--------|

e|------------------------------------------------------|to next row|------|
B|---11--11--11---11--11--11-------------13-11--11--11--|to next row|------|
G|11-111111111110-111111111111-9-9-10101013-111111111111|to next row|------|
D|x--x-x-x-x-x-x--x-x-x-x-x-x--x-x-x-x-x-x--x-x-x-x-x-x-|to next row|------|
A|9--9-9-9-9-9-8--7-7-7-7-7-7--7-7-8-8-8-11-9-9-9-9-9-9-|to next row|------|
E|------------------------------------------------------|to next row|------|

e|----------------------------------------------------|to next row|--------|
B|--11-11-11--11-10-11--11--11----------11-11--11--11-|to next row|--------|
G|--11-111111111110-111111111111-9-8-64-11-1111111111-|to next row|--------|
D|--x--x-x-x-x-x-x--x-x-x-x-x-x--x-x-xx-x--x-x-x-x-x--|to next row|--------|
A|--9--9-9-9-9-9-8--7-7-7-7-7-7--7-6-42-9--9-9-9-9-9--|to next row|--------|
E|----------------------------------------------------|to next row|--------|

e|------------------------------------------------------|to next row|------|
B|---11--11--11---11--11--11-------------13-11--11--11--|to next row|------|
G|11-111111111110-111111111111-9-9-10101013-111111111111|to next row|------|
D|x--x-x-x-x-x-x--x-x-x-x-x-x--x-x-x-x-x-x--x-x-x-x-x-x-|to next row|------|
A|9--9-9-9-9-9-8--7-7-7-7-7-7--7-7-8-8-8-11-9-9-9-9-9-9-|to next row|------|
E|------------------------------------------------------|to next row|------|

Then Chorus 2:
e|--------------------|x3|-----------------|--------|----------------------|
B|--------------------|x3|-----------------|--------|----------------------|
G|-4-4-111------------|x3|1-1-111-6-6666666|whole---|6666666---------------|
D|-4-4-222-4-444444444|x3|2-2-222-6-6666666|Chorus-2|6666666---------------|
A|-2-2-222-4-444444444|x3|2-2-222-4-4444444|x2------|4444444---------------|
E|-----000-2-222222222|x3|0-0-000----------|--------|----------------------|

Last but not least the Outro/Intro:
e|------------------|x3|-----------------------------------------------|End|
B|------------------|x3|-----------------------------------------------|End|
G|-------------9-999|x3|6666666666666644-4-----44-4--------------------|End|
D|-4-4-444-999-9-999|x3|6666666666666644-44----44-44/------------------|End|
A|-4-4-444-999-7-777|x3|4444444444444422-24----22-24/------------------|End|
E|-2-2-222-777------|x3|------------------2--------2/------------------|End|


************************************
| /   slide up
| \   slide down
| h   hammer-on
| p   pull-off
| ~   vibrato
| +   harmonic
| x   Mute note
| b   Bend
| pb  Pre-bend
| br  Bend release
| pbr Pre-bend release
| brb Bend release bend
************************************





Comments


Popular Green Day tabs & chords
All The Time Bass Tabs
All By Myself Chords
Are We The Waiting Chords
Castaway Drum Tabs
21 Guns 10 Tabs
Fashion Victim 2 Tabs
Geek Stink Breath 6 Tabs
Maria 1 Tabs
Prosthetic Head Tabs
Waiting 1 Tabs


Song lyrics



↑ Back to top | Tablatures and chords are parodies/interpretations of the original songs. You may use it for private study, scholarship, research or language learning purposes only
© 2014 AZChords.com Contact us | Privacy policy | DMCA | Add/correct tabs | Request tabs | Top 50 tabs