» » »

Castaway Bass tabs (ver.5)

Artists:  A B C D E F G H I J K L M N O P Q R S T U V W X Y Z # 

Castaway Bass tabs (ver.5)

Green Day
Rating:
0/5 (0 votes)

Tabs too difficult? Try these video lessons and learn fast.
                 |------------------------------------|
 |------------------------------------|
 |-2--2--2-----------------2--2-------| x6      
 |----------4--4--0--0--0-------------|
 
 |-----------------------------------------|
 |-----------------------------------------|
 |----------------2-2-2---2--2-2-2---2-----|       
 |0-0-0-0-0-0-0-0-------4----------4-------|
 
 |-----------------------------------------|
 |-----------------------------------------|
 |-----------------------------------------|
 |0-0-0-0-0-0-0-0--2~~~~~~-----------------|

 |------------------------------------|
 |------------------------------------|
 |-2--2--2-----------------2--2-------| x4     
 |----------4--4--0--0--0-------------|

 |-----------------------------------------|
 |-----------------------------------------|
 |-----------------------------------------|
 |0-0-0-0-0-0-0-0--2~~~~~~-----------------|

 |------------------------------------|
 |------------------------------------|
 |-2--2--2-----------------2--2-------| x7     
 |----------4--4--0--0--0-------------|

 |-----------------------------------------|
 |-----------------------------------------|
 |----------------2-2-2---2--2-2-2---2-----|       
 |0-0-0-0-0-0-0-0-------4----------4-------|
 
 |-----------------------------------------|
 |-----------------------------------------|
 |-----------------------------------------|
 |0-0-0-0-0-0-0-0--2~~~~~~-----------------|

 |------------------------------------|
 |------------------------------------|
 |-2--2--2-----------------2--2-------| x4     
 |----------4--4--0--0--0-------------|

 |-----------------------------------------|
 |-----------------------------------------|
 |-----------------------------------------|
 |0-0-0-0-0-0-0-0--2~~~~~~-----------------|



 |------------------------------------|
 |------------------------------------|
 |-2--2--2-----------------2--2-------| x9    
 |----------4--4--0--0--0-------------|

 |-----------------------------------------|
 |-----------------------------------------|
 |----------------2-2-2---2--2-2-2---2-----|       
 |0-0-0-0-0-0-0-0-------4----------4-------|
 
 |-----------------------------------------|
 |-----------------------------------------|
 |-----------------------------------------|
 |0-0-0-0-0-0-0-0--2~~~~~~-----------------|

 |------------------------------------|
 |------------------------------------|
 |-2--2--2-----------------2--2-------| x4     
 |----------4--4--0--0--0-------------|

 |-----------------------------------------|
 |-----------------------------------------|
 |-----------------------------------------|
 |0-0-0-0-0-0-0-0--2~~~~~~-----------------|

 |------------------------------------|
 |------------------------------------|
 |-2--2--2-----------------2--2-------| x4     
 |----------4--4--0--0--0-------------|
            
Tabs too difficult? Try these video lessons and learn fast.


comments powered by Disqus
↑ Back to top | Tablatures and chords are parodies/interpretations of the original songs. You may use it for private study, scholarship, research or language learning purposes only