» » »

Green Day, Burn Out Tabs (ver.5)

Artists:  A B C D E F G H I J K L M N O P Q R S T U V W X Y Z # 

Burn Out Tabs (ver.5)

Green Day Tabs
 Rating:
4/5 (4 votes)
Burn Out lessons Tabs too difficult? Try these video lessons and learn fast
                "Updated- everything should be good, Thanks for comments and e-mails.

 1st riff x2
|---------------------------------------------|
|---------------------------------------------|
|----------5-5-5-5-----------5-5--------------|
|-5-5-5-5--5-5-5-5--5-5-5-5--5-5-3-3--5-5-5-5-|
|-5-5-5-5--3-3-3-3--5-5-5-5--3-3-3-3--5-5-5-5-|
|-3-3-3-3-----------3-3-3-3------1-1--3-3-3-3-|

 ------------------------------|
 ------------------------------|
 --------------7-7-7-7-7-7-7-7-|
 -3-3-3-3-3-3--7-7-7-7-7-7-7-7-|
 -3-3-3-3-3-3--5-5-5-5-5-5-5-5-|
 -1-1-1-1-1-1------------------|


 2nd riff
|--------------------------------------------|
|--------------------------------------------|
|-5-5-5-5---------------5-5------------------|
|-5-5-5-5--5-5-5-5-5-5--5-5-3-3--5-5-5-5-5-5-|
|-3-3-3-3--5-5-5-5-5-5--3-3-3-3--5-5-5-5-5-5-|
|----------3-3-3-3-3-3------1-1--3-3-3-3-3-3-|

 -------------------------------------------|
 -------------------------------------------|
 -5-5-5-5-5-5---------------7-7-7-7-7-7-7-7-|
 -5-5-5-5-5-5--3-3-3-3-3-3--7-7-7-7-7-7-7-7-|
 -3-3-3-3-3-3--3-3-3-3-3-3--5-5-5-5-5-5-5-5-|
 --------------1-1-1-1-1-1------------------|


3rd riff
|-------------------------------------------------------------|
|-------------------------------------------------------------|
|-5-5-5-5-5-5---------------5-5-------------------5-5-5-5-5-5-|
|-5-5-5-5-5-5--5-5-5-5-5-5--5-5-3-3--5-5-5-5-5-5--5-5-5-5-5-5-|
|-3-3-3-3-3-3--5-5-5-5-5-5--3-3-3-3--5-5-5-5-5-5--3-3-3-3-3-3-|
|--------------3-3-3-3-3-3------1-1--3-3-3-3-3-3--------------|

 ----------------------------------------------------------------|
 ----------------------------------------------------------------|
 ----------------7-7-7-7-7-7-7-7-7-7-7-7-7-7-7-7-7-7-7-7-7-7-7-7-|
 -3-3-3-3-3-3-3--7-7-7-7-7-7-7-7-7-7-7-7-7-7-7-7-7-7-7-7-7-7-7-7-|
 -3-3-3-3-3-3-3--5-5-5-5-5-5-5-5-5-5-5-5-5-5-5-5-5-5-5-5-5-5-5-5-|
 -1-1-1-1-1-1-1--------------------------------------------------|


 -----------------------------------------------------------------|
 -----------------------------------------------------------------|
 -7-7-7-7-7-7-7-7-7-7-7-7-7-7-7-7-7-7-7-7-7-7-7-7-7-7-7-7-7-7-7-7-|
 -7-7-7-7-7-7-7-7-7-7-7-7-7-7-7-7-7-7-7-7-7-7-7-7-7-7-7-7-7-7-7-7-|
 -5-5-5-5-5-5-5-5-5-5-5-5-5-5-5-5-5-5-5-5-5-5-5-5-5-5-5-5-5-5-5-5-|
 -----------------------------------------------------------------|

4th riff
|-------------|
|-------------|
|-------------|
|-5-5-5--3--5-|
|-5-5-5--3--5-|
|-3-3-3--1--3-|


SONG ORDER

1st riff  x2
2nd riff  x1
1st riff  x2
2nd riff  x1
3rd riff  x1
4th riff  x4
2nd riff  x1
3rd riff  x1
4th riff  x1


notes: Thats this great song tabbed..listen to song for timing
       please rate and any feedback welcomed to email. THANKS.
"            
Submit corrections

comments powered by Disqus
↑ Back to top | Green Day Tabs for Burn Out. Lyrics for acoustic guitar and electric guitar. Tablatures and chords are parodies/interpretations of the original songs. You may use it for private study, scholarship, research or language learning purposes only