» » »

Brutal Love Bass tabs (ver.1)

Artists:  A B C D E F G H I J K L M N O P Q R S T U V W X Y Z # 

Brutal Love Bass tabs (ver.1)

Green Day
Rating:
0/5 (0 votes)

Hard to play? Try these video lessons and learn fast.
                This is by far my favorite song off of Green Day's new album ¡Tre! :D

Bassist : Mike Dirnt
Playing Style : Pick

When bass starts: Verse 1:09

G|-----------------------------------------------------------|
D|-----------------------------------------------------------|
A|---------------6--66--6---------3---------4--44--4---------|
E|---4--44--4---------------4--44----6--4--------------------|

G|---------------------------------------------------------------|
D|---------------------------------------------------------------|
A|--------------6--66-6------------------------------------------|
E|----4--44-4-------------4--44-44-44-44-------------------------|   2x

2:11 Next Verse (different variation)


G|-------------------------------------------------------------|
D|-------------------------------------------6-4---------------|
A|--4--44--4------------346--66--6--------------6--4--44-4-----|
E|-------------4--44--4--------------4--44-4 ------------------|

G|--------------------------------------------|
D|--------------------------------------------|
A|-------------444444----666666---------------|
E|---4-4-3-1----------------------------------|

2:44 Solo

G|-----------------------------------------------|
D|-----------------------------------------------|
A|-------------333333--444444--777777------------|
E|-----444444------------------------------------|

G|-----------------------------------------------|
D|-----------------------------------------------|
A|---------------------444444--666---------------|
E|----444444--333333----------------555----------| 2x

3:14 Verse:

G|-------------------------------------------------------------|
D|-------------------------------------------6-4---------------|
A|--4--44--4------------346--66--6--------------6--4--44-4-----|
E|-------------4--44--4--------------4--44-4 ------------------|

G|-----------------------------------------------|
D|-----------------------------------------------|
A|-------------444444----666666777---------------|
E|---4-4-3-1-------------------------------------|

3:44 Outro: (half a step up from solo)

G|-----------------------------------------------|
D|------------------------------333333-----------|
A|-------------444444--555555--------------------|
E|-----555555------------------------------------|

G|------------------------------------------------------------|
D|------------------------------------------------------------|
A|---------------------555555--777----------------------------|
E|----555555--444444----------------666--------5(end note)----| 4x


Hope this helped!! Good Luck

Rock on Idiot Nation!
            
Hard to play? Try these video lessons and learn fast. | Correct




comments powered by Disqus
↑ Back to top | Tablatures and chords are parodies/interpretations of the original songs. You may use it for private study, scholarship, research or language learning purposes only