>
 >
Brutal Love

Brutal Love Guitar Tabs

Green Day - Brutal Love chords, tabs, tablatures, lyrics

Guitar lessons | Add/correct | Request | Top 50 tabs Artists:  A B C D E F G H I J K L M N O P Q R S T U V W X Y Z 0-9

Brutal Love Guitar Tabs – Green Day

CD, Sheet music, Poster

Do you like Brutal Love? Share with your friends now
Bass TabsChordsChords v2TabsTabs v2Ukulele
One of the best songs from íTRE!
There are a couple of versions on the site already, I'd like to share how I think it is. 
Standard tuning.


INTRO
         G#
e|---------------|
B|---------------|
G|--------5------|
D|------6---6----| X4
A|----6-------6--|
E|--4------------|
       

1st verse - Turn out the lights...
2nd verse - Oh how you want it...
3rd verse - Old toys...
4th verse - Danger, not quite at home...
  G#            Eb             G#
e|---------------------------------------|
B|--------------------8------------------|
G|-------5----------8---8----------5-----|  
D|-----6---6------8-------8------6---6---|
A|---6-------6--6--------------6-------6-|
E|-4-------------------------4-----------|
      X2             X2              X2         
                                                     
  C#              G#         Eb          G#
e|----------------------------------------------------|
B|--------6-------------------------8-----------------|
G|------6---6----------5----------8---8---------5-----|
D|----6-------6------6---6------8-------8-----6---6---|
A|--4--------------6-------6--6-------------6-------6-|
E|---------------4------------------------4-----------|
       X2             X2            X2         X4

Repeat for verse 1, 2 and 3. 
The 4th verse, right before the chorus, goes like this.

  G#            Eb             G#
e|---------------------------------------|
B|--------------------8------------------|
G|-------5----------8---8----------5-----|  
D|-----6---6------8-------8------6---6---|
A|---6-------6--6--------------6-------6-|
E|-4-------------------------4-----------|
      X2             X2              X2   

 C#              G#         Eb          G#            G#7
e|-----------------------------------------------------------------|
B|--------6-------------------------8------------------------------|
G|------6---6----------5----------8---8---------5------------5-----|
D|----6-------6------6---6------8-------8-----6---6--------4---4---|
A|--4--------------6-------6--6-------------6-------6----6-------6-|
E|---------------4------------------------4------------4-----------|
       X2             X2            X2         X2          X2


 
Chorus - Bad luck...
  C#               G#          Eb         G#
e|-----------------------------------------------------|
B|--------6-------------------------8------------------|
G|------6---6----------5----------8---8----------5-----|
D|----6-------6------6---6------8-------8------6---6---|
A|--4--------------6-------6--6--------------6-------6-|
E|---------------4-------------------------4-----------|
         X2              X2       X2              X2
Bad sex...
   C#           G#          F           C#          Eb
e|---------------------------------------------------------|
B|--------6-----------------------------------6------------|
G|------6---6---------6-----------1---------6---6----8-----|
D|----6-------6-----5---5-------3---3-----6-------6--8-----| 
A|--4-------------5-------5---3-------3-4------------6-----|
E|--------------4-----------1------------------------------|
         X2                             X2    

During SOLO
    G#         Cm           C#          E
e|-----------------------------------------------------|
B|-----------------------------------------------------|
G|--5-5-5-5-5-5-5-5-5-5-5-5-6-6-6-6-6-6-9-9-9-9-9-9----|
D|--6-6-6-6-6-6-5-5-5-5-5-5-6-6-6-6-6-6-9-9-9-9-9-9----| 
A|--6-6-6-6-6-6-3-3-3-3-3-3-4-4-4-4-4-4-7-7-7-7-7-7----|
E|--4-4-4-4-4-4----------------------------------------| 
    G#         G            C#         Eb      A
e|-----------------------------------------------------|
B|-----------------------------------------------------|
G|--------------------------6-6-6-6-6-6-8-8-8----------|
D|--6-6-6-6-6-6-5-5-5-5-5-5-6-6-6-6-6-6-8-8-8-5-5-5----|
A|--6-6-6-6-6-6-5-5-5-5-5-5-4-4-4-4-4-4-6-6-6-5-5-5----|
E|--4-4-4-4-4-4-3-3-3-3-3-3-------------------7-7-7----|

    G#         Cm           C#          E
e|-----------------------------------------------------|
B|-----------------------------------------------------|
G|--5-5-5-5-5-5-5-5-5-5-5-5-6-6-6-6-6-6-9-9-9-9-9-9----|
D|--6-6-6-6-6-6-5-5-5-5-5-5-6-6-6-6-6-6-9-9-9-9-9-9----| 
A|--6-6-6-6-6-6-3-3-3-3-3-3-4-4-4-4-4-4-7-7-7-7-7-7----|
E|--4-4-4-4-4-4----------------------------------------| 
   G#          G            C#           Eb    
e|-----------------------------------------------------|
B|-----------------------------------------------------|
G|--------------------------6-6-6-6-6-6-8-8-8-8-8-8----|
D|--6-6-6-6-6-6-5-5-5-5-5-5-6-6-6-6-6-6-8-8-8-8-8-8----|
A|--6-6-6-6-6-6-5-5-5-5-5-5-4-4-4-4-4-4-6-6-6-6-6-6----|
E|--4-4-4-4-4-4-3-3-3-3-3-3----------------------------|

SOLO

e|----------------------------------------------------------------|
B|----------------------------------------------------------------|
G|---1/---10-8---(8)-10-8--10-8--1----1-5--0---0-1--3---3-1-3-----|
D|----------------------------------------------------------------| X2 
A|----------------------------------------------------------------|
E|----------------------------------------------------------------|

Chorus - Bad luck...
   C#                G#
e|-------------------------------------|
B|-------------------------------------|
G|-6-6-6-6--6-6-6-6--------------------|
D|-6-6-6-6--6-6-6-6--6-6-6-6--6-6-6-6--| 
A|-4-4-4-4--4-4-4-4--6-6-6-6--6-6-6-6--|
E|-------------------4-4-4-4--4-4-4-4--|
   Eb                       G#
e|--------------------------------------------------|
B|--------------------------------------------------|
G|-8-8-8-8-8-8-8-8-8-8-8-8--------------------------|
D|-8-8-8-8-8-8-8-8-8-8-8-8--6-6-6-6-6-6-6-6-6-6-6-6-| 
A|-6-6-6-6-6-6-6-6-6-6-6-6--6-6-6-6-6-6-6-6-6-6-6-6-|
E|--------------------------4-4-4-4-4-4-4-4-4-4-4-4-|



Bad love...

   C#                G#       G F
e|--------------------------------------------|
B|--------------------------------------------|
G|-6-6-6-6--6-6-6-6---------------------------|
D|-6-6-6-6--6-6-6-6--6-6-6-6-6-5-3-3-3-3-3-3--| 
A|-4-4-4-4--4-4-4-4--6-6-6-6-6-5-3-3-3-3-3-3--|
E|-------------------4-4-4-4-4-3-1-1-1-1-1-1--|

   C#                      Eb          E
e|-------------------------------------------------|
B|-------------------------------------------------|
G|-6-6-6-6-6-6-6-6-6-6-6-6-8-8-8-8-8-8-9-9-9-9-9-9-|
D|-6-6-6-6-6-6-6-6-6-6-6-6-8-8-8-8-8-8-9-9-9-9-9-9-| 
A|-4-4-4-4-4-4-4-4-4-4-4-4-6-6-6-6-6-6-7-7-7-7-7-7-|
E|-------------------------------------------------|

    A            C#m          D            F
e|------------------------------------------------------------|
B|------------------------------------------------------------|
G|--6-6-6-6-6-6--6-6-6-6-6-6--7-7-7-7-7-7--10-10-10-10-10-10--|
D|--7-7-7-7-7-7--6-6-6-6-6-6--7-7-7-7-7-7--10-10-10-10-10-10--| 
A|--7-7-7-7-7-7--4-4-4-4-4-4--5-5-5-5-5-5--8--8--8--8--8--8---|
E|--5-5-5-5-5-5-----------------------------------------------|

   A             G#           D            E     A#                          
e|-----------------------------------------------------|     
B|-----------------------------------------------------|     
G|----------------------------7-7-7-7-7-7--9-9-9-------|     
D|--7-7-7-7-7-7--6-6-6-6-6-6--7-7-7-7-7-7--9-9-9-8-8-8-| x4  
A|--7-7-7-7-7-7--6-6-6-6-6-6--5-5-5-5-5-5--7-7-7-8-8-8-|     
E|--5-5-5-5-5-5--4-4-4-4-4-4---------------------6-6-6-|     

   A
e|---|
B|---|
G|-6-|
D|-7-|
A|-7-|
E|-5-|





Comments


Popular Green Day tabs & chords
Poprocks & Coke 2 Bass Tabs
Welcome To Paradise Bass Tabs
Blood, Sex, And Booze Chords
Brutal Love Chords
2000 Light Years Away 3 Tabs
All The Time Tabs
I Wanna Be Alone 1 Tabs
Longview 2 Tabs
No Pride 1 Tabs
Pulling Teeth 2 Tabs


Song lyrics



↑ Back to top | Tablatures and chords are parodies/interpretations of the original songs. You may use it for private study, scholarship, research or language learning purposes only
© 2014 AZChords.com Contact us | Privacy policy | DMCA | Add/correct tabs | Request tabs | Top 50 tabs