>
 >
Brain Stew 7

Brain Stew 7 Guitar Tabs

Green Day - Brain Stew 7 chords, tabs, tablatures, lyrics

Guitar lessons | Add/correct | Request | Top 50 tabs Artists:  A B C D E F G H I J K L M N O P Q R S T U V W X Y Z 0-9

Brain Stew 7 Guitar Tabs – Green Day

CD, Sheet music, Poster

Do you like Brain Stew 7? Share with your friends now
Tabs
*********************************************************************
Track: Brain Stew

Song Legend:
|-x-x----------|
|-x-x-x-x------|
|-----x-x------|
=Muted strings

Tune all guitars down 1/2 step:
6=Eb 3=Gb
5=Ab 2=Bb
4=Db 1=Eb

Intro 1

|--------------|-------------------|-----------------------|x1
|--------------|-------------------|-----------------------| 0:00-
|--------------|-------------------|-----------------------| 0:06
|--------------|-------------------|-----------------------|
|-7-7----5-5---|-4-4------3-3---2-2|-7-7-------------------|
|-5-5----3-3---|-2-2------1-1---0-0|-5-5-------------------|

intro 2 + Verse 1
|--------------|-------------------|-----------------------|x11
|--------------|-------------------|-----------------------| 0:06-
|--------------|-------------------|-----------------------| 1:16
|--------------|-------------------|-----------------------|
|--------5-5---|-4-4------3-3---2-2|-7-7-------------------|
|--------3-3---|-2-2------1-1---0-0|-5-5-------------------|
Chorus intro
|----------------------|-------------------------------------|x1
|----------------------|-------------------------------------| 1:16-
|----------------------|-------------------------------------| 1:22
|-----xxxxxx-----xxxxxx|-----xxxxxx-----xx-----xx-----xxxxxx-|
|-----xxxxxx-5-5-xxxxxx|-4-4-xxxxxx-3-3-xx-2-2-xx-7-5-xxxxxx-|
|-----xxxxxx-3-3-xxxxxx|-2-2-xxxxxx-1-1-xx-0-0-xx-7-5-xxxxxx-|
Chorus
|----------------------|-------------------------------------|x1
|----------------------|-------------------------------------| 1:22-
|----------------------|-------------------------------------| 1:28
|----------------xxxxxx|-----xxxxxx-----xx-----xx-----xxxxxx-|
|------------5-5-xxxxxx|-4-4-xxxxxx-3-3-xx-2-2-xx-7-5-xxxxxx-|
|------------3-3-xxxxxx|-2-2-xxxxxx-1-1-xx-0-0-xx-7-5-xxxxxx-|




Verse 2
|--------------|-------------------|-----------------------|4x
|--------------|-------------------|-----------------------| 1:28-
|--------------|-------------------|-----------------------| 1:52
|--------------|-------------------|-----------------------|
|--------5-5---|-4-4------3-3---2-2|-7-7-------------------|
|--------3-3---|-2-2------1-1---0-0|-5-5-------------------|

Chorus intro
|----------------------|-------------------------------------|1x
|----------------------|-------------------------------------| 1:52-
|----------------------|-------------------------------------| 1:58
|-----xxxxxx-----xxxxxx|-----xxxxxx-----xx-----xx-----xxxxxx-|
|-----xxxxxx-5-5-xxxxxx|-4-4-xxxxxx-3-3-xx-2-2-xx-7-5-xxxxxx-|
|-----xxxxxx-3-3-xxxxxx|-2-2-xxxxxx-1-1-xx-0-0-xx-7-5-xxxxxx-|
Chorus
|----------------------|-------------------------------------|1x
|----------------------|-------------------------------------| 1:58-
|----------------------|-------------------------------------| 2:05
|----------------xxxxxx|-----xxxxxx-----xx-----xx-----xxxxxx-|
|------------5-5-xxxxxx|-4-4-xxxxxx-3-3-xx-2-2-xx-7-5-xxxxxx-|
|------------3-3-xxxxxx|-2-2-xxxxxx-1-1-xx-0-0-xx-7-5-xxxxxx-|

Verse 3 


|-----------x-x-x--x-x-|-----x-x-x--x-x-----x-x-----x-x----x-x-x—-x-x|3x
|-----------x-x-x--x-x-|-----x-x-x--x-x-----x-x-----x-x----x-x-x—-x-x|2:05-
|----------------------|---------------------------------------------|2:24
|----------------------|---------------------------------------------|
|--------5-5-----------|--4-4------------3-3-----2-2-----7-5---------|
|--------3-3-----------|--2-2------------1-1-----0-0-----5-5---------|

|--------------|----------------------------------|x1
|--------------|----------------------------------|2:24-
|--------------|----------------------------------|2:30
|--------------|----------------------------------|
|--------5-5---|-4-4--------------3-3---2-2----7-7|
|--------3-3---|-2-2-(2)/14\2-----1-1---0-0----5-5|




Outro (not sure about this)

     ~~~~          ~~~~         ~~~~        ~~~~   ~~~~
|------0-------------0----|-------0-----------------------|-------|x6
|----0-------------0------|-----0-------------0-----0-----|-------|2:30-
|-------------------------|-------------------------------|-------|to end
|-------------------------|-------------------------------|-------|
|--------7-7---5-5-----5--|-4-4------4----3-3---2-2-------|-7-7---|
|--------5-5-0-3-3-----3-0|-2-2------2-0--1-1---0-0-------|-5-5---|

There it is in that order….
*********************************************************************





Comments


Popular Green Day tabs & chords
1,000 Hours Bass Tabs
Geek Stink Breath 2 Bass Tabs
Long View Bass Tabs
Brain Stew Chords
Ha Ha You're Dead Chords
Green Day  1 Tabs
Green Day  2 Tabs
In The End Tabs
Secret Track Tabs
Walking Contradictin Tabs


Song lyrics



↑ Back to top | Tablatures and chords are parodies/interpretations of the original songs. You may use it for private study, scholarship, research or language learning purposes only
© 2014 AZChords.com Contact us | Privacy policy | DMCA | Add/correct tabs | Request tabs | Top 50 tabs