>
 >
Brain Stew 5

Brain Stew 5 Guitar Tabs

Green Day - Brain Stew 5 chords, tabs, tablatures, lyrics

Guitar lessons | Add/correct | Request | Top 50 tabs Artists:  A B C D E F G H I J K L M N O P Q R S T U V W X Y Z 0-9

Brain Stew 5 Guitar Tabs – Green Day

CD, Sheet music, Poster

Do you like Brain Stew 5? Share with your friends now
Tabs
#This OLGA file is the author's own work and represents their interpretation  #
#research. Remember to view this file in Courier, or some other monospaced    #


               ****************************************
               *Song: Brainstew                       *
               *Artist: Green Day                     *
               *INFO: Wiew in notepad!                *
               *      and use full dist!              *
               ****************************************

    intro, main riff & verse:

   A5     G5     F#5   F5  E5
e|-----------------------------|
b|-----------------------------|
g|-----------------------------|  
d|-7-7----5-5----4-4--3-3--2-2-|
a|-7-7----5-5----4-4--3-3--2-2-|
E|-5-5----3-3----2-2--1-1--0-0-|
repeat a couple of times!

Chorus or what it is:
(x means palm mute with the hand
you=B4re holding the chords with)
   A5            G5              F#5             F5      E5
e|-----x-x-x-x-x-----x-x-x-x-x-x-----x-x-x-x-x-x-----x-x-----|
b|-----x-x-x-x-x-----x-x-x-x-x-x-----x-x-x-x-x-x-----x-x-----|
g|-----x-x-x-x-x-----x-x-x-x-x-x-----x-x-x-x-x-x-----x-x-----|  
d|-7-7-x-x-x-x-x-5-5-x-x-x-x-x-x-4-4-x-x-x-x-x-x-3-3-x-x-2-2-|
a|-7-7-----------5-5-------------4-4-------------3-3-----2-2-|
E|-5-5-----------3-3-------------2-2-------------1-1-----0-0-|             =



Bass goes:
intro & verse
    A     G       F#   F    E
g|-----------------------------|  
d|-----------------------------|  
a|-----------------------------|  
E|-5-5----3-3----2-2--1-1--0-0-|

Chorus
    A              G               F#              F        E    
g|-------------------------------------------------------------|
d|-------------------------------------------------------------|
a|-------------------------------------------------------------|
E|-5-5-x-x-x-x-x-x-3-3-x-x-x-x-x-x-2-2-x-x-x-x-x-x-1-1-x-x-0-0-| 

Intro, verse & chorus plays the same rythm as guitar


In the end of the song somethings likes this
comes in on the guitar: 
(it maybe is keyboard?)

e|----------------------------------|
b|-----3------3-------3----4----6-3-| 
g|-4-5----4-5----4-5----4----5------| 
d|----------------------------------| 
a|----------------------------------|
E|----------------------------------|
this is repeated a couple of times


the outro goes same as the intro (A5, G5, F#5, F5, E5 )
in a little slower rythm!

Enjoy the tab!
Any questions, comments, suggestions or corrections?
send them all to:
***********************
*You got this tab from* 
***********************





Comments


Popular Green Day tabs & chords
Amy 1 Chords
Church On Sunday 1 Chords
Coming Clean 3 Chords
Dirty Rotten Bastards Chords
Good Riddance Chords
Platypus Chords
Dry Ice 2 Tabs
Fashion Victim Tabs
No Pride 2 Tabs
Pulling Teeth 1 Tabs


Song lyrics



↑ Back to top | Tablatures and chords are parodies/interpretations of the original songs. You may use it for private study, scholarship, research or language learning purposes only
© 2014 AZChords.com Contact us | Privacy policy | DMCA | Add/correct tabs | Request tabs | Top 50 tabs