» » »

Green Day, Brain Stew Bass tabs (ver.6)

Artists:  A B C D E F G H I J K L M N O P Q R S T U V W X Y Z # 

Brain Stew Bass tabs (ver.6)

Green Day Tabs
 Rating:
4/5 (4 votes)
Brain Stew lessons Tabs too difficult? Try these video lessons and learn fast
1
                Green Day   Brain Stew
Insomniac, 1995

Tuning: half step down

There's NO "intro", "verse", "chorus" etc. 

Play x6:
Gb|---------------------------|
Db|---------------------------|
Ab|---------------------------|
Eb|--5-5--3-3--2-2--1-1-0-0---|

Play x1:
Gb|---------------------------|--------------------------->
Db|------7--------------------|--------------------------->
Ab|---------------------------|--------------------------->
Eb|--0h5---3-3--2-2--1-1-0-0--|--5-5--3-3--2-2--1-1-0-0--->

Gb|---------------------------|
Db|------7--------------------|
Ab|---------------------------|
Eb|--0h5---3-3--2-2--1-1-0-0--|

Play x3:
Gb|---------------------------|
Db|---------------------------| 
Ab|---------------------------|
Eb|--5-5--3-3--2-2--1-1-0-0---|

Play x1:
Gb|---------------------------|
Db|------7--------------------|
Ab|---------------------------|
Eb|--0h5---3-3--2-2--1-1-0-0--|

Play x4:
Gb|---------------------------|
Db|---------------------------| 
Ab|---------------------------|
Eb|--5-5--3-3--2-2--1-1-0-0---|

Play x1:
Gb|----------------------------|
Db|--------------------3~--2~--|
Ab|----------------------------|
Eb|--5-5--3-3--2-2—0h1--1-0-0--|

Play 5X:
Gb|-----------------------------------|
Db|-----7-7-----5-5----4-4----3~--2~--|
Ab|-----------------------------------|
Eb|--0h5-5--0h3-3—--0h2-2—-0h1--00-0--|

Ending:
Gb|-----------|
Db|------7~~~-|
Ab|-----------|
Eb|--0h5------|

Pretty sure the notes are 100%, but anyways comment, rate and enjoy! ;)
justanimrod
            
Submit corrections

comments powered by Disqus
↑ Back to top | Green Day Bass for Brain Stew. Lyrics for acoustic guitar and electric guitar. 1 Tablatures and chords are parodies/interpretations of the original songs. You may use it for private study, scholarship, research or language learning purposes only