» » »

Brain Stew Tabs (ver.2)

Artists:  A B C D E F G H I J K L M N O P Q R S T U V W X Y Z # 

Brain Stew Tabs (ver.2)

Green Day
Rating:
0/5 (0 votes)

Tabs too difficult? Try these video lessons and learn fast.
                "(1)
Greenday
brainstew
tuning is half step down Eb Ab Db Gb Bb Eb

x= left hand string mute (place gently over all strings and pick indicated ones)
&= pause all noise



Eb |---------------------------|x 12 or so, it’s hard to count that many
Bb |---------------------------|
Gb |---------------------------|
Db |-7-7---5-5---4-4---3-3-2-2-|
Ab |-7-7-&-5-5-&-4-4-&-3-3-2-2-|
Eb |-5-5---3-3---2-2---1-1-0-0-|

Eb |-----------------------------------------------------------------| x2
Bb |-----------------------------------------------------------------|
Gb |-----------------------------------------------------------------|
Db |-7-7x-x-x-x-x-x--5-5x-x-x-x-x-x--4-4x-x-x-x-x-x--3-3-x-x-2-2-x-x-|
Ab |-7-7x-x-x-x-x-x--5-5x-x-x-x-x-x--4-4x-x-x-x-x-x--3-3-x-x-2-2-x-x-|
Eb |-5-5x-x-x-x-x-x--3-3x-x-x-x-x-x--2-2x-x-x-x-x-x--1-1-x-x-0-0-x-x-|

Eb |---------------------------|x4
Bb |---------------------------|
Gb |---------------------------|
Db |-7-7---5-5---4-4---3-3-2-2-|
Ab |-7-7-&-5-5-&-4-4-&-3-3-2-2-|
Eb |-5-5---3-3---2-2---1-1-0-0-|


Eb |-----------------------------------------------------------------| x2
Bb |-----------------------------------------------------------------|
Gb |-----------------------------------------------------------------|
Db |-7-7x-x-x-x-x-x--5-5x-x-x-x-x-x--4-4x-x-x-x-x-x--3-3-x-x-2-2-x-x-|
Ab |-7-7x-x-x-x-x-x--5-5x-x-x-x-x-x--4-4x-x-x-x-x-x--3-3-x-x-2-2-x-x-|
Eb |-5-5x-x-x-x-x-x--3-3x-x-x-x-x-x--2-2x-x-x-x-x-x--1-1-x-x-0-0-x-x-|

Eb |-----x-x-x--x-x------x-x-x--x-x------x-x-x--x-x-------x-x-----x-x-|x2
Bb |-----x-x-x--x-x------x-x-x--x-x------x-x-x--x-x-------x-x-----x-x-|
Gb |------------------------------------------------------------------|
Db |-7-7-------------5-5-------------4-4--------------3-3-----2-2-----|
Ab |-7-7-------------5-5-------------4-4--------------3-3-----2-2-----|
Eb |-5-5-------------3-3-------------2-2--------------1-1-----0-0-----|

Eb |---------------------------|x5
Bb |-----0-----0-----0---------|
Gb |---------------------------|
Db |-7-7---5-5---4-4---3-3-2-2-|
Ab |-7-7---5-5---4-4---3-3-2-2-|
Eb |-5-5---3-3---2-2---1-1-0-0-|
"            
Tabs too difficult? Try these video lessons and learn fast.


comments powered by Disqus
↑ Back to top | Tablatures and chords are parodies/interpretations of the original songs. You may use it for private study, scholarship, research or language learning purposes only