>
 >
Boulevard Of Broken Dreams Live

Boulevard Of Broken Dreams Live Guitar Tabs

Green Day - Boulevard Of Broken Dreams Live chords, tabs, tablatures, lyrics

Guitar lessons | Add/correct | Request | Top 50 tabs Artists:  A B C D E F G H I J K L M N O P Q R S T U V W X Y Z 0-9

Boulevard Of Broken Dreams Live Guitar Tabs – Green Day

CD, Sheet music, Poster

Do you like Boulevard Of Broken Dreams Live? Share with your friends now
Tabs
Green Day Boulevard of Broken Dreams (Live)
Performed in New York 2004 

Yeah im the first person to tab a live version of this (I think)
If any body has seen Green Day play this live they probably would have noticed that
Billie Joe doesn't play anything in the verses, that other guy plays the rhythm part
and the lead bit is pre recorded but for this tab I will say it is Billie Joe okay!
(Cos its just to confusing otherwise) I really burst some blood vessels tabbing this
but here it is and im confident that is accurate to how green day play it.
So for this tab: 

 Billie Joe is Guitar 1 (E-A-D-G-B-e)
Jason White is Guitar 2 (E-A-D-G-B-e) (capo at fret 1)

A few words on Jason White, if recently you have seen Green Day live either at a concert
or on T.V you would on noticed a strange guy playing rhythm instead of a backing track
that strange guy is Jason white Green Day's current 2nd guitarist he is a friend of the
bands and actually appears in the When I come around video with his girlfriend (he looks
a lot different though because it was ten years ago) Although he seems to be a good
guitarist which he is undoubtedly. But If you own the Boulevard of Broken Dreams single
Cd2 you probably would of noticed that while playing American Idiot Jason White fucks
up the solo and fucks up a bit after the solo too. (American idiot ironic ey!?)

FYI it tabbed this off watching later with Jools Holland it you didn't see it you can
download for free from greendayauthority.com 



Backing Track (capo at fret 1) (this is played throughout most of the song in the
background, use your whammy bar to bend each chord if you don't have a whammy ba
 use some tremolo effects. If you don't have tremolo effects than God bless you. If you
want to play this song live - pre-record this and play over the top of it with your two
guitarists or if you have 3 guitarists then you're in luck.

e|---------------------------|
B|---------------------------|
G|-9--9---12--12--7-7--------|
D|-9--9---12--12--7-7--7-7-7-|
A|-7--7---10--10--5-5--7-7-7-|
E|---------------------5-5-5-|
(With tremolo effect)



Verse
Guitar 2   'I walk a lonely road'
e|-0--0-0-0--3--3-3-3--2--2-2-2--0---0--|-0--0-0-0--3--3-3-3--2--2-2-2--0---0--|
B|-0--0-0-0--3--3-3-3--3--3-3-3--2---2--|-0--0-0-0--3--3-3-3--3--3-3-3--2---2--|
G|-0--0-0-0--0--0-0-0--2--2-2-2--2---2--|-0--0-0-0--0--0-0-0--2--2-2-2--2---2--|
D|-2--2-2-2--0--0------0--0------2-2-2-2|-2--2-2-2--0--0------0--0------2-2-2-2|
A|-2--2------2--2----------------0-0-0-0|-2--2------2--2----------------0-0-0-0|
E|-0--0------3--3-----------------------|-0--0------3--3-----------------------|

Guitar 1 (nothing)

Guitar 2
e|-0--0-0-0--3--3-3-3--2--2-2-2--0---0--|-0--0-0-0--3--3-3-3--2--2-2-2--0---0--|
B|-0--0-0-0--3--3-3-3--3--3-3-3--2---2--|-0--0-0-0--3--3-3-3--3--3-3-3--2---2--|
G|-0--0-0-0--0--0-0-0--2--2-2-2--2---2--|-0--0-0-0--0--0-0-0--2--2-2-2--2---2--|
D|-2--2-2-2--0--0------0--0------2-2-2-2|-2--2-2-2--0--0------0--0------2-2-2-2|
A|-2--2------2--2----------------0-0-0-0|-2--2------2--2----------------0-0-0-0|
E|-0--0------3--3-----------------------|-0--0------3--3-----------------------|

Guitar 1
e|-----2--3-----/7--5------2h3----------|------------------------------------|
B|--------------------------------------|------------------------------------|
G|--------------------------------------|------------------------------------|
D|--------------------------------------|------------------------------------|
A|--------------------------------------|------------------------------------|
E|--------------------------------------|------------------------------------|

Guitar 2   'Where the city sleeps'
e|-0--0-0-0--3--3-3-3--2--2-2-2--0---0--|-0--0-0-0--3--3-3-3--2--2-2-2--0---0--|
B|-0--0-0-0--3--3-3-3--3--3-3-3--2---2--|-0--0-0-0--3--3-3-3--3--3-3-3--2---2--|
G|-0--0-0-0--0--0-0-0--2--2-2-2--2---2--|-0--0-0-0--0--0-0-0--2--2-2-2--2---2--|
D|-2--2-2-2--0--0------0--0------2-2-2-2|-2--2-2-2--0--0------0--0------2-2-2-2|
A|-2--2------2--2----------------0-0-0-0|-2--2------2--2----------------0-0-0-0|
E|-0--0------3--3-----------------------|-0--0------3--3-----------------------|

Guitar 1   
e|--------------------------------------|-----2--3-----/7--5------2h3--------|
B|--------------------------------------|------------------------------------|
G|--------------------------------------|------------------------------------|
D|--------------------------------------|------------------------------------|
A|--------------------------------------|------------------------------------|
E|--------------------------------------|------------------------------------|

Guitar 2  'I walk alone I walk alone
           I walk alone I walk a-'
e|-0--0-0-0--3--3-3-3--2--2-2-2-----------|------------------------------------|
B|-0--0-0-0--3--3-3-3--3--3-3-3-----------|------------------------------------|
G|-0--0-0-0--0--0-0-0--2--2-2-2--2-2-2----|------------------------------------|
D|-2--2-2-2--0--0------0--0------2-2-2----|------------------------------------|
A|-2--2------2--2----------------0-0-0--2-|------------------------------------|
E|-0--0------3--3-------------------------|------------------------------------|

Guitar 1   
e|----2--3-----/7--5-----2h3-------------|------------------------------------|
B|---------------------------------------|------------------------------------|
G|------------------------------2-2-2----|------------------------------------|
D|------------------------------2-2-2----|------------------------------------|
A|------------------------------0-0-0--2-|------------------------------------|
E|---------------------------------------|------------------------------------|

Chorus
Guitar 1
e|------------------------------------|------------------------------------|
B|------------------------------------|------------------------------------|
G|-6-6-6-6-----------8-8-8-8----------|-6-6-6-6-----------8-8-8-8----------|
D|-6-6-6-6--6-6-6-6--8-8-8-8--3-3-3-3-|-6-6-6-6--6-6-6-6--8-8-8-8--3-3-3-3-|
A|-4-4-4-4--6-6-6-6--6-6-6-6--3-3-3-3-|-4-4-4-4--6-6-6-6--6-6-6-6--3-3-3-3-|
E|----------4-4-4-4-----------1-1-1-1-|----------4-4-4-4-----------1-1-1-1-|

Guitar 2
e|------------------------------------|------------------------------------|
B|------------------------------------|------------------------------------|
G|-5-5-5-5-----------7-7-7-7----------|-5-5-5-5-----------7-7-7-7----------|
D|-5-5-5-5--5-5-5-5--7-7-7-7--2-2-2-2-|-5-5-5-5--5-5-5-5--7-7-7-7--2-2-2-2-|
A|-3-3-3-3--5-5-5-5--5-5-5-5--2-2-2-2-|-3-3-3-3--5-5-5-5--5-5-5-5--2-2-2-2-|
E|----------3-3-3-3-----------0-0-0-0-|----------3-3-3-3-----------0-0-0-0-|

Guitar 1
e|------------------------------------|------------------------------------|
B|------------------------------------|------------------------------------|
G|-6-6-6-6-----------8-8-8-8----------|-6-6-6-6-------------5-5-5-5---5----|
D|-6-6-6-6--6-6-6-6--8-8-8-8--3-3-3-3-|-6-6-6-6--6-6-6-6----5-5-5-5---5----|
A|-4-4-4-4--6-6-6-6--6-6-6-6--3-3-3-3-|-4-4-4-4--6-6-6-6----3-3-3-3---3----|
E|----------4-4-4-4-----------1-1-1-1-|----------4-4-4-4-------------------|

Guitar 2
e|------------------------------------|------------------------------------|
B|------------------------------------|------------------------------------|
G|-5-5-5-5-----------7-7-7-7----------|-5-5-5-5-------------4-4-4-4---4----|
D|-5-5-5-5--5-5-5-5--7-7-7-7--2-2-2-2-|-5-5-5-5--5-5-5-5----4-4-4-4---4----|
A|-3-3-3-3--5-5-5-5--5-5-5-5--2-2-2-2-|-3-3-3-3--5-5-5-5----2-2-2-2---2----|
E|----------3-3-3-3-----------0-0-0-0-|----------3-3-3-3-------------------|


Post Chorus
Guitar 2   ' aha aha aha'
e|-0--0-0-0--3--3-3-3--2--2-2-2--0---0--|-0--0-0-0--3--3-3-3--2--2-2-2--0---0--|
B|-0--0-0-0--3--3-3-3--3--3-3-3--2---2--|-0--0-0-0--3--3-3-3--3--3-3-3--2---2--|
G|-0--0-0-0--0--0-0-0--2--2-2-2--2---2--|-0--0-0-0--0--0-0-0--2--2-2-2--2---2--|
D|-2--2-2-2--0--0------0--0------2-2-2-2|-2--2-2-2--0--0------0--0------2-2-2-2|
A|-2--2------2--2----------------0-0-0-0|-2--2------2--2----------------0-0-0-0|
E|-0--0------3--3-----------------------|-0--0------3--3-----------------------|

Guitar 1 (Plays Nothing)

Verse
Guitar 2 'I'm walking down the line'
e|-0--0-0-0--3--3-3-3--2--2-2-2--0---0--|-0--0-0-0--3--3-3-3--2--2-2-2--0---0--|
B|-0--0-0-0--3--3-3-3--3--3-3-3--2---2--|-0--0-0-0--3--3-3-3--3--3-3-3--2---2--|
G|-0--0-0-0--0--0-0-0--2--2-2-2--2---2--|-0--0-0-0--0--0-0-0--2--2-2-2--2---2--|
D|-2--2-2-2--0--0------0--0------2-2-2-2|-2--2-2-2--0--0------0--0------2-2-2-2|
A|-2--2------2--2----------------0-0-0-0|-2--2------2--2----------------0-0-0-0|
E|-0--0------3--3-----------------------|-0--0------3--3-----------------------|

Guitar 1 (nothing)

Guitar 2
e|-0--0-0-0--3--3-3-3--2--2-2-2--0---0--|-0--0-0-0--3--3-3-3--2--2-2-2--0---0--|
B|-0--0-0-0--3--3-3-3--3--3-3-3--2---2--|-0--0-0-0--3--3-3-3--3--3-3-3--2---2--|
G|-0--0-0-0--0--0-0-0--2--2-2-2--2---2--|-0--0-0-0--0--0-0-0--2--2-2-2--2---2--|
D|-2--2-2-2--0--0------0--0------2-2-2-2|-2--2-2-2--0--0------0--0------2-2-2-2|
A|-2--2------2--2----------------0-0-0-0|-2--2------2--2----------------0-0-0-0|
E|-0--0------3--3-----------------------|-0--0------3--3-----------------------|

Guitar 1
e|-----2--3-----/7--5------2h3----------|------------------------------------|
B|--------------------------------------|------------------------------------|
G|--------------------------------------|------------------------------------|
D|--------------------------------------|------------------------------------|
A|--------------------------------------|------------------------------------|
E|--------------------------------------|------------------------------------|

Guitar 2  'Check my vital signs to 
           know I'm still alive'
e|-0--0-0-0--3--3-3-3--2--2-2-2--0---0--|-0--0-0-0--3--3-3-3--2--2-2-2--0---0--|
B|-0--0-0-0--3--3-3-3--3--3-3-3--2---2--|-0--0-0-0--3--3-3-3--3--3-3-3--2---2--|
G|-0--0-0-0--0--0-0-0--2--2-2-2--2---2--|-0--0-0-0--0--0-0-0--2--2-2-2--2---2--|
D|-2--2-2-2--0--0------0--0------2-2-2-2|-2--2-2-2--0--0------0--0------2-2-2-2|
A|-2--2------2--2----------------0-0-0-0|-2--2------2--2----------------0-0-0-0|
E|-0--0------3--3-----------------------|-0--0------3--3-----------------------|

Guitar 1
e|--------------------------------------|-----2--3-----/7--5------2h3--------|
B|--------------------------------------|------------------------------------|
G|--------------------------------------|------------------------------------|
D|--------------------------------------|------------------------------------|
A|--------------------------------------|------------------------------------|
E|--------------------------------------|------------------------------------|

Guitar 2  'I walk alone I walk alone
                          I walk alone I walk a-'
e|-0--0-0-0--3--3-3-3--2--2-2-2-----------|------------------------------------|
B|-0--0-0-0--3--3-3-3--3--3-3-3-----------|------------------------------------|
G|-0--0-0-0--0--0-0-0--2--2-2-2--2-2-2----|------------------------------------|
D|-2--2-2-2--0--0------0--0------2-2-2----|------------------------------------|
A|-2--2------2--2----------------0-0-0--2-|------------------------------------|
E|-0--0------3--3-------------------------|------------------------------------|

Guitar 1
e|----2--3-----/7--5-----2h3-------------|------------------------------------|
B|---------------------------------------|------------------------------------|
G|------------------------------2-2-2----|------------------------------------|
D|------------------------------2-2-2----|------------------------------------|
A|------------------------------0-0-0--2-|------------------------------------|
E|---------------------------------------|------------------------------------|

Chorus
Guitar 1  'my shadows the only one 
        That walks beside me'
e|------------------------------------|------------------------------------|
B|------------------------------------|------------------------------------|
G|-6-6-6-6-----------8-8-8-8----------|-6-6-6-6-----------8-8-8-8----------|
D|-6-6-6-6--6-6-6-6--8-8-8-8--3-3-3-3-|-6-6-6-6--6-6-6-6--8-8-8-8--3-3-3-3-|
A|-4-4-4-4--6-6-6-6--6-6-6-6--3-3-3-3-|-4-4-4-4--6-6-6-6--6-6-6-6--3-3-3-3-|
E|----------4-4-4-4-----------1-1-1-1-|----------4-4-4-4-----------1-1-1-1-|

Guitar 2
e|------------------------------------|------------------------------------|
B|------------------------------------|------------------------------------|
G|-5-5-5-5-----------7-7-7-7----------|-5-5-5-5-----------7-7-7-7----------|
D|-5-5-5-5--5-5-5-5--7-7-7-7--2-2-2-2-|-5-5-5-5--5-5-5-5--7-7-7-7--2-2-2-2-|
A|-3-3-3-3--5-5-5-5--5-5-5-5--2-2-2-2-|-3-3-3-3--5-5-5-5--5-5-5-5--2-2-2-2-|
E|----------3-3-3-3-----------0-0-0-0-|----------3-3-3-3-----------0-0-0-0-|

Guitar 1
e|------------------------------------|------------------------------------|
B|------------------------------------|------------------------------------|
G|-6-6-6-6-----------8-8-8-8----------|-6-6-6-6-------------5-5-5-5---5----|
D|-6-6-6-6--6-6-6-6--8-8-8-8--3-3-3-3-|-6-6-6-6--6-6-6-6----5-5-5-5---5----|
A|-4-4-4-4--6-6-6-6--6-6-6-6--3-3-3-3-|-4-4-4-4--6-6-6-6----3-3-3-3---3----|
E|----------4-4-4-4-----------1-1-1-1-|----------4-4-4-4-------------------|

Guitar 2
e|------------------------------------|------------------------------------|
B|------------------------------------|------------------------------------|
G|-5-5-5-5-----------7-7-7-7----------|-5-5-5-5-------------4-4-4-4---4----|
D|-5-5-5-5--5-5-5-5--7-7-7-7--2-2-2-2-|-5-5-5-5--5-5-5-5----4-4-4-4---4----|
A|-3-3-3-3--5-5-5-5--5-5-5-5--2-2-2-2-|-3-3-3-3--5-5-5-5----2-2-2-2---2----|
E|----------3-3-3-3-----------0-0-0-0-|----------3-3-3-3-------------------|

Post Chorus
Guitar 2   ' aha aha aha'
e|-0--0-0-0--3--3-3-3--2--2-2-2--0---0--|-0--0-0-0--3--3-3-3--2--2-2-2---------|
B|-0--0-0-0--3--3-3-3--3--3-3-3--2---2--|-0--0-0-0--3--3-3-3--3--3-3-3---------|
G|-0--0-0-0--0--0-0-0--2--2-2-2--2---2--|-0--0-0-0--0--0-0-0--2--2-2-2--2-2-2--|
D|-2--2-2-2--0--0------0--0------2-2-2-2|-2--2-2-2--0--0------0--0------2-2-2--|
A|-2--2------2--2----------------0-0-0-0|-2--2------2--2----------------0-0-0-2|
E|-0--0------3--3-----------------------|-0--0------3--3-----------------------|


Solo  (there are two tracks in the solo - they are tabbed separately below)
Guitar 2
e|------------------------------------|------------------------------------------|
B|------------------------------------|------------------------------------------|
G|12-11--12-12-12-12-12-12/16-16-14-14|14-14-14-14-11-11-12-12-12-12-12-12-12-12-|
D|-x--x---x--x--x--x--x--x--x--x--x--x|-x--x--x--x--x--x--x--x--x--x--x--x--x--x-|
A|10--9--10-10-10-10-10-10/14-14-12-12|12-12-12-12--9--9-10-10-10-10-10-10-10-10-|
E|------------------------------------|------------------------------------------|

e|-------|---------------------------------------------|-------------------------|
B|-------|---------------------------------------------|-------------------------|
G|-12-12-|-9-9-9-9-11-11-12-12-12-12-12-12/16-16-14-14-|9-9-9-9-11-11-12-12-12-12|
D|--x--x-|-x-x-x-x--x--x--x--x--x--x--x--x--x--x--x--x-|x-x-x-x--x--x--x--x--x--x|
A|-10-10-|-7-7-7-7--9--9-10-10-10-10-10-10/14-14-12-12-|7-7-7-7--9--9-10-10-10-10|
E|-------|---------------------------------------------|-------------------------|

e|-------------------|-------------------------------------------------|----------|
B|-------------------|-------------------------------------------------|----------|
G|-12-12/16-16-14-14-|-14-14-14-14-11-11-12-12-12-12-12-12-12-12-12-12-|16-16-16--|
D|--x--x--x--x--x--x-|--x--x--x--x--x--x--x--x--x--x--x--x--x--x--x--x-|-x--x--x--|
A|-10-10/14-14-12-12-|-12-12-12-12--9--9-10-10-10-10-10-10-10-10-10-10-|14-14-14--|
E|-------------------|-------------------------------------------------|----------|

e|--------------------------------------------------------------------|
B|--------------------------------------------------------------------|
G|-16-16-16-16-16-16-16-16-16-16-16-16-16-16-16-16-16-16-16-16-16-16--|
D|--x--x--x--x--x--x--x--x--x--x--x--x--x--x--x--x--x--x--x--x--x--x--|
A|-14-14-14-14-14-14-14-14-14-14-14-14-14-14-14-14-14-14-14-14-14-14--|
E|--------------------------------------------------------------------|

Guitar 1
e|------------------------------------|-----------------------------------------|
B|------------------------------------|-----------------------------------------|
G|-6-6-6-6-----------8-8-8-8----------|---6-6-6-6-------------8-8-8-8-----------|
D|-6-6-6-6--6-6-6-6--8-8-8-8--3-3-3-3-|---6-6-6-6---6-6-6-6---8-8-8-8---3-3-3-3-|
A|-4-4-4-4--6-6-6-6--6-6-6-6--3-3-3-3-|---4-4-4-4---6-6-6-6---6-6-6-6---3-3-3-3-|
E|----------4-4-4-4-----------1-1-1-1-|-------------4-4-4-4-------------1-1-1-1-|
        
e|------------------------------------|------------------------------------|
B|------------------------------------|------------------------------------|
G|-6-6---------------8-8-8-8----------|-6-6---------------5-5-5-5-5-5-5-5--|
D|-6-6------6-6------8-8-8-8--3-3-3-3-|-6-6------6-6------5-5-5-5-5-5-5-5--|
A|-4-4------6-6------6-6-6-6--3-3-3-3-|-4-4------6-6------3-3-3-3-3-3-3-3--|
E|----------4-4---------------1-1-1-1-|----------4-4-----------------------|

e|------------------------------------|
B|------------------------------------|
G|-5-5-5-5--5#------------------------|
D|-5-5-5-5--5#------------------------|
A|-3-3-3-3--3#------------------------|
E|------------------------------------|

Post Chorus
Guitar 2  (acoustic sound)
e|-0--0-0-0--3--3-3-3--2--2-2-2--0---0--|-0--0-0-0--3--3-3-3--2--2-2-2---------|
B|-0--0-0-0--3--3-3-3--3--3-3-3--2---2--|-0--0-0-0--3--3-3-3--3--3-3-3---------|
G|-0--0-0-0--0--0-0-0--2--2-2-2--2---2--|-0--0-0-0--0--0-0-0--2--2-2-2--2-2-2--|
D|-2--2-2-2--0--0------0--0------2-2-2-2|-2--2-2-2--0--0------0--0------2-2-2--|
A|-2--2------2--2----------------0-0-0-0|-2--2------2--2----------------0-0-0-2|
E|-0--0------3--3-----------------------|-0--0------3--3-----------------------|

Pre Outro
Guitar 1
e|------------------------------------|------------------------------------|
B|------------------------------------|------------------------------------|
G|-6-6-6-6-----------8-8-8-8----------|-6-6-6-6-----------8-8-8-8----------|
D|-6-6-6-6--6-6-6-6--8-8-8-8--3-3-3-3-|-6-6-6-6--6-6-6-6--8-8-8-8--3-3-3-3-|
A|-4-4-4-4--6-6-6-6--6-6-6-6--3-3-3-3-|-4-4-4-4--6-6-6-6--6-6-6-6--3-3-3-3-|
E|----------4-4-4-4-----------1-1-1-1-|----------4-4-4-4-----------1-1-1-1-|

Guitar 2
e|------------------------------------|------------------------------------|
B|------------------------------------|------------------------------------|
G|-5-5-5-5-----------7-7-7-7----------|-5-5-5-5-----------7-7-7-7----------|
D|-5-5-5-5--5-5-5-5--7-7-7-7--2-2-2-2-|-5-5-5-5--5-5-5-5--7-7-7-7--2-2-2-2-|
A|-3-3-3-3--5-5-5-5--5-5-5-5--2-2-2-2-|-3-3-3-3--5-5-5-5--5-5-5-5--2-2-2-2-|
E|----------3-3-3-3-----------0-0-0-0-|----------3-3-3-3-----------0-0-0-0-|

Guitar 1
e|------------------------------------|------------------------------------|
B|------------------------------------|------------------------------------|
G|-6-6-6-6-----------8-8-8-8----------|-6-6-6-6-------------5-5-5-5--------|
D|-6-6-6-6--6-6-6-6--8-8-8-8--3-3-3-3-|-6-6-6-6--6-6-6-6----5-5-5-5--------|
A|-4-4-4-4--6-6-6-6--6-6-6-6--3-3-3-3-|-4-4-4-4--6-6-6-6----3-3-3-3--------|
E|----------4-4-4-4-----------1-1-1-1-|----------4-4-4-4-------------------|

Guitar 2
e|------------------------------------|------------------------------------------|
B|------------------------------------|------------------------------------------|
G|12-11--12-12-12-12-12-12/16-16-14-14|14-14-14-14-11-11-12-12-12-12-12-12-12-12-|
D|-x--x---x--x--x--x--x--x--x--x--x--x|-x--x--x--x--x--x--x--x--x--x--x--x--x--x-|
A|10--9--10-10-10-10-10-10/14-14-12-12|12-12-12-12--9--9-10-10-10-10-10-10-10-10-|
E|------------------------------------|------------------------------------------|

Guitar 1
e|------------------------------------|
B|------------------------------------|
G|-5-5-5-5-5-5-5-5-5-5-5-5------------|
D|-5-5-5-5-5-5-5-5-5-5-5-5------------|
A|-3-3-3-3-3-3-3-3-3-3-3-3------------|
E|------------------------------------|

e|------------------------------------|
B|------------------------------------|
G|-16-16-16-16-16-16-16-16-16-16-16-16|
D|--x--x--x--x--x--x--x--x--x--x--x--x|
A|-14-14-14-14-14-14-14-14-14-14-14-14|
E|------------------------------------|

Outro (there are two tracks in the outro - they are tabbed separately below)
Guitar 1 
e|----------------------------------------|----------------------------------------|
B|----------------------------------------|----------------------------------------|
G|----------------------------------------|----------------------------------------|
D|----------------------------------------|----------------------------------------|
A|-------4-4-4--6-6-6--5-5-5--------------|-------4-4-4--6-6-6--5-5-5--------------|
E|-1-1-1---------------------4-4-4--0-0-0-|-1-1-1---------------------4-4-4--0-0-0-|

Guitar 2 (with some strange effects)
e|----------------------------------------|----------------------------------------|
B|----------------------------------------|----------------------------------------|
G|----12-----------16---------11----------|----12-----------16---------11----------|
D|-----x--(x40)-----x--(x3)----x--(x3)----|-----x--(x40)-----x--(x4)----x--(x4)----|
A|----10-----------14----------9----------|----10-----------14----------9----------|
E|----------------------------------------|----------------------------------------|

Guitar 1
e|----------------------------------------|-------------------------------------|
B|----------------------------------------|-------------------------------------|
G|----------------------------------------|-------------------------------------|
D|----------------------------------------|-------------------------------------|
A|-------4-4-4--6-6-6--5-5-5--------------|-------4-4-4--6-6-6--5-5-5-----------|
E|-1-1-1---------------------4-4-4--0-0-0-|-1-1-1---------------------4-4--0-0--|

Guitar 2 (with some strange effects)
e|----------------------------------------|----------------------------------------|
B|----------------------------------------|----------------------------------------|
G|----12-----------16---------11----------|----12-----------16---------11----------|
D|-----x--(x40)-----x--(x4)----x--(x4)----|-----x--(x40)-----x--(x2)----x--(x2)----|
A|----10-----------14----------9----------|----10-----------14----------9----------|
E|----------------------------------------|----------------------------------------|

So there you go hope it helps, please rate this well cos I had to tab it using my video
player and a notepad (it was difficult) feed back via comments thingy welcome thank you
and good bye!
Also there is bound to be a few typos on a tab this size so if there is just leave a
correction comment.





Comments


Popular Green Day tabs & chords
Chump Bass Tabs
I Wanna Be On T.V. 1 Bass Tabs
21 Guns Chords
I Was There  Chords
Boulevard Of Broken Dreams 1 Drum Tabs
A Boy Called John Pekins Tabs
Blitzkrieg Bop Tabs
Coming Clean 3 Tabs
Rotting Tabs
Waiting 2 Tabs


Song lyrics



↑ Back to top | Tablatures and chords are parodies/interpretations of the original songs. You may use it for private study, scholarship, research or language learning purposes only
© 2014 AZChords.com Contact us | Privacy policy | DMCA | Add/correct tabs | Request tabs | Top 50 tabs