» » »

Best Thing In Town Tabs (ver.3)

Artists:  A B C D E F G H I J K L M N O P Q R S T U V W X Y Z # 

Best Thing In Town Tabs (ver.3)

Green Day
Rating:
0/5 (0 votes)

Hard to play? Try these video lessons and learn fast.
                -------------------------------------------------------------------------------
                             BEST THING IN TOWN SOLO-Green Day
-------------------------------------------------------------------------------

| /  slide up
| \  slide down
| h  hammer-on
| p  pull-off
| ~  vibrato
| +  harmonic
| x  Mute note
| s  stop chord immediately after you’ve played it.

Tuning: Down half a step

I downloaded a tab for the whole kerplunk album, which had the solos for Strangeland, 
Best Thing in Town and My Generation, so here is the Best Thing in Town Solo.

e-0-0-0-0-0-0-0-0-0-0-0-0-0-0-0-0-0-0-0-0-0-0-0-0-0-0-0-0---0---0-0-------0-0-|
B—5-5-5-5-5-5-5-5-3-3-3-3-3-3-3-3-1-1-1-1-1-1-1-1-0-0-0-0---0---0-0-----------|
G-----------------------------------------------------0-0-----2b----2h3h4-----|
D---------------------------------------------------------4~------------------|
A-----------------------------------------------------------------------------|
E-----------------------------------------------------------------------------|

e-0---------------------0---0-0-0-----0--0--0------------12--------12--------12-|
B—------------------------0---0-0-----0-12-12---------12--------12--------12----|
G--------0-0h2p0---0-2b-----------2-4---------14b-14b-------14b-------14b-------|
D---2-2----------2------------------4-------------------------------------------|
A-------------------------------------------------------------------------------|
E-------------------------------------------------------------------------------|

e--------12------------------------------------------------------------0-----|
B—----12----15--15--15--15---15--15--15--15--15------------------------0----0|
G-14b-------14b-14b-14b-12b—-14b-12b-12b-14b-12b-0-0-0-2-2p0---0-2h3h4---2b--|
D------------------------------------------------------------2---------------|
A----------------------------------------------------------------------------|
E----------------------------------------------------------------------------|

e-0--------------------------------------------------------------------------|
B—---------------------------------------------------------------------------|
G---2bp0---0-0h2p0---0-------------------------------------------------------|
D--------2---------2---2p0---------------0-----------------------------------|
A--------------------------2p0-----2-5p0-1p0---------------------------------|
E------------------------------0h3-----------3-------------------------------|

The tab on here for this song is excellent, so I thought I would try and find a tab for 
solo to go with it.
==============================================================================================
            
Hard to play? Try these video lessons and learn fast. | Correct




comments powered by Disqus
↑ Back to top | Tablatures and chords are parodies/interpretations of the original songs. You may use it for private study, scholarship, research or language learning purposes only