» » »

Before The Lobotomy Bass tabs (ver.2)

Artists:  A B C D E F G H I J K L M N O P Q R S T U V W X Y Z # 

Before The Lobotomy Bass tabs (ver.2)

Green Day
Rating:
0/5 (0 votes)

Hard to play? Try these video lessons and learn fast.
                1:29''

G|-------|
D|-------|
A|-4-----| (x8)
E|--24-4-|

Verse:

G|--------|
D|--------|
A|-4-----4| (x4)
E|--24424-|

Chorus:

G|-------|
D|-------|
A|--4----| (x8)
E|-2-4-4-|

Verse:
G|-------------|
D|-------------|
A|-4-----4-(4)-| (x4) (4)in the third time
E|--24424-(4)--|     (4) in the third time

Chorus:

G|-------|      |------------------|
D|-------|      |------------------|
A|--4----| (x8) |-4444444444444444-|
E|-2-4-4-|      |------------------|

G|------------------|
D|------------------|
A|-4-4-444----------| (x4)
E|--------4-44-4444-|

G|--------------------------------------------------|
D|--------------------------------------------------|
A|-2-2-222---------5-5-555---------4444444444444444-|
E|--------2-22-2222-------5-55-5555-----------------|

G|---------------------------------------------------------------------|
D|---------------------------------------------------------------------|
A|---------------------------------------------------22222222-55555555-|(x4)
E|-2222222222222222-1111111111111111-0000000000000000------------------|
            
Hard to play? Try these video lessons and learn fast. | Correct




comments powered by Disqus
↑ Back to top | Tablatures and chords are parodies/interpretations of the original songs. You may use it for private study, scholarship, research or language learning purposes only