» » »

Green Day, Before The Lobotomy Bass tabs (ver.1)

Artists:  A B C D E F G H I J K L M N O P Q R S T U V W X Y Z # 

Before The Lobotomy Bass tabs (ver.1)

Green Day Tabs
 Rating:
4/5 (4 votes)
Before The Lobotomy lessons Tabs too difficult? Try these video lessons and learn fast
1
                ===============================================================================
                       BEFORE THE LABOTOMY – Green Day
===============================================================================

 
Tuning: Half a Step Down (Eb,Ab,Db,Gb)

==============================================================================
I have included the timing so it would be easier to play along to (pretty sure its correct)

Intro (Acoustic Guitar Only)

Pre-Verse (Come in With Drums and Electric Guitar)
Gb|------------------|------------------|----------| 
Db|------------------|------------------|----------|  
Ab|--5---------------|------------------|----------| 
Eb|------------------|------------------|----------| 
     1 & 2 & 3 & 4 &    1 & 2 & 3 & 4 &    1 & 2 &
Gb|------------------|------------------|----------|
Db|------------------|------------------|----------|
Ab|--5-------5-------|--5-------5-------|----------|
Eb|----3-5-----3-5---|----3-5-----3-5---|----------|
     1 & 2(&)3 & 4(&)   1 & 2(&)3 & 4(&)    1 & 2 & 
Gb|------------------|------------------||
Db|------------------|------------------||
Ab|--5-------5-------|--5-------5-------||    
Eb|----3-5-----3-5---|----3-5-----3-5---||   
     1 & 2(&)3 & 4(&)   1 & 2(&)3 & 4(&)    

Verse 1
Gb|------------------|------------------||
Db|------------------|------------------||X4
Ab|------------------|--5-----------5---||
Eb|------------------|----3-5---3-5-----||
     1 & 2 & 3 & 4 &    1 & 2(&)3 & 4(&)    

Chorus
Gb|------------------||
Db|------------------||X4
Ab|----5-------5-----||
Eb|--3---5---3---5---||
     1 & 2(&)3 & 4(&)    

Verse 2
Gb|------------------|------------------|        
Db|------------------|------------------|X3 Then 
Ab|------------------|--5-----------5---|        
Eb|------------------|----3-5---3-5-----|        
     1 & 2 & 3 & 4 &    1 & 2(&)3 & 4(&)    
Gb|------------------|----------|------------------|
Db|------------------|----------|------------------|
Ab|--5---------------|----------|--5-----------5---|
Eb|------------------|----------|----3-5---3-5-----|
     1 & 2 & 3 & 4 &    1 & 2 &    1 & 2(&)3 & 4(&)    

Chorus
Gb|------------------|
Db|------------------|X3 Then
Ab|----5-------5-----|
Eb|--3---5---3---5---|
     1 & 2(&)3 & 4(&)        
Gb|------|------------------|------------------|
Db|------|------------------|------------------|
Ab|----5-|------------------|------------------|
Eb|--3---|--5-5-5-5-5-5-5-5-|--5-5-5-5-5-5-----|
     1 &    1 & 2 & 3 & 4 &    1 & 2 & 3 & 4 &


Bridge
Gb|---------------|--------------------|
Db|---------------|--------------------|X4 Then
Ab|--5--5--5-5-5--|--------------------|
Eb|---------------|--5--5-5---5-5-5-5--|
     1  &  2 3 4     1  & 2(&)3 & 4 &
Gb|---------------|--------------------|---------------|--------------------|
Db|---------------|--------------------|---------------|--------------------|
Ab|--3--3--3-3-3--|--------------------|--6--6--6-6-6--|--------------------|
Eb|---------------|--3--3-3---3-3-3-3--|---------------|--6--6-6---6-6-6-6--|
     1  &  2 3 4     1  & 2(&)3 & 4 &     1  &  2 3 4     1  & 2(&)3 & 4 &            
Gb|------------------|------------------|
Db|------------------|------------------|
Ab|--5-5-5-5-5-5-5-5-|--5-5-5-5-5-5-5-5-|
Eb|------------------|------------------|
     1 & 2 & 3 & 4 &    1 & 2 & 3 & 4 &   
Gb|------------------|------------------|
Db|------------------|------------------|
Ab|--5-5-5-5-5-5-5-5-|--5-5-5-5-5-5-5-5-|
Eb|------------------|------------------|
     1 & 2 & 3 & 4 &    1 & 2 & 3 & 4 &   

Outro                                                          
Gb|-----------------|-----------------|-----------------|-----------------|-----------------|
Db|-----------------|-----------------|-----------------|-----------------|-----------------|
Ab|-----------------|-----------------|-----------------|-----------------|-----------------|
Eb|-3-3-3-3-3-3-3-3-|-3-3-3-3-3-3-3-3-|-2-2-2-2-2-2-2-2-|-2-2-2-2-2-2-2-2-|-1-1-1-1-1-1-1-1-|
    1 & 2 & 3 & 4 &   1 & 2 & 3 & 4 &   1 & 2 & 3 & 4 &   1 & 2 & 3 & 4 &   1 & 2 & 3 & 4 &    
Gb|-----------------|-----------------|-----------------|-----------------|-----------------|
Db|-----------------|-----------------|-----------------|-----------------|-----------------|
Ab|-----------------|-3-3-3-3-3-3-3-3-|-6-6-6-6-6-6-6-6-|-----------------|-----------------|
Eb|-1-1-1-1-1-1-1-1-|-----------------|-----------------|-3-3-3-3-3-3-3-3-|-3-3-3-3-3-3-3-3-|
    1 & 2 & 3 & 4 &   1 & 2 & 3 & 4 &   1 & 2 & 3 & 4 &   1 & 2 & 3 & 4 &   1 & 2 & 3 & 4 &    
Gb|-----------------|-----------------|-----------------|-----------------|
Db|-----------------|-----------------|-----------------|-----------------|Play all this
Ab|-----------------|-----------------|-----------------|-----------------|     X3
Eb|-2-2-2-2-2-2-2-2-|-2-2-2-2-2-2-2-2-|-1-1-1-1-1-1-1-1-|-1-1-1-1-1-1-1-1-|
    1 & 2 & 3 & 4 &   1 & 2 & 3 & 4 &   1 & 2 & 3 & 4 &   1 & 2 & 3 & 4 &    

| /  slide up
| \  slide down
| h  hammer-on
| p  pull-off
| ~  vibrato
| +  harmonic
| x  Mute note
===============================================================================
            
Submit corrections

comments powered by Disqus
↑ Back to top | Green Day Bass for Before The Lobotomy. Lyrics for acoustic guitar and electric guitar. 1 Tablatures and chords are parodies/interpretations of the original songs. You may use it for private study, scholarship, research or language learning purposes only