» » »

Green Day, Basket Case Tabs (ver.5)

Artists:  A B C D E F G H I J K L M N O P Q R S T U V W X Y Z # 

Basket Case Tabs (ver.5)

Green Day Tabs
 Rating:
4/5 (4 votes)
Basket Case lessons Tabs too difficult? Try these video lessons and learn fast
1
                (Live)
|-----------------------|
|----> Basket Case <----|
|----> Green   Day <----|
|------> Dookie <-------|
|-----------------------|

Tunning: Standard (E A D G b e)

This is my 2nd tab I've wrote. I hope you enjoy it! =)

Verse:

e|---------------------------------------------|\
b|---------------------------------------------| \
G|-8--8--8-8------------5-5--5--5-5------------|  \___
D|-8--8--8-8-8--8-8-8-8-5-5--5--5-5-5--5-5-5-5-|  /  |
A|-6--6--6-6-8--8-8-8-8-3-3--3--3-3-5--5-5-5-5-| /   |
E|-----------6--6-6-6-6-------------3--3-3-3-3-|/    |
                                                     |
  ----------------------------------------------------
  |
\ | /
 \|/

e|--------------------------------------------|\
b|--------------------------------------------| \
G|-----------8--8--8-8------------------------|  \___ x 2
D|-6--6--6-6-8--8--8-8-8--8-8-8-8--8--8-8-8-8-|  /
A|-6--6--6-6-6--6--6-6-8--8-8-8-8--8--8-8-8-8-| /
E|-4--4--4-4-----------6--6-6-6-6--6--6-6-6-6-|/

Chorus:

e|----------------------------------------------|\
b|----------------------------------------------| \
G|-----------------------8--8-8-8-8--8--8-8-8-8-|  \___ x 2
D|-6--6--6-6-8--8-8-8-8--8--8-8-8-8--8--8-8-8-8-|  /  |
A|-6--6--6-6-8--8-8-8-8--6--6-6-6-6--6--6-6-6-6-| /   |
E|-4--4--4-4-6--6-6-6-6-------------------------|/    |
                                                      |
  ----------------------------------------------------
  |
\ | /
 \|/

e|----------------------------------------------|\
b|----------------------------------------------| \
G|-----------------------8--8-8-8-8--5--5-5-5-5-|  \___ x 1
D|-6--6--6-6-8--8-8-8-8--8--8-8-8-8--5--5-5-5-5-|  /  |
A|-6--6--6-6-8--8-8-8-8--6--6-6-6-6--3--3-3-3-3-| /   |
E|-4--4--4-4-6--6-6-6-6-------------------------|/    |
                                                      |
  ----------------------------------------------------
  |
\ | /
 \|/

e|-----------------------------------------------------------------|\
b|-----------------------------------------------------------------| \
G|-----------------------8--8-8-8-8------------5-5-5-5-5-----------|  \___
D|-6--6--6-6-8--8-8-8-8--8--8-8-8-8--8--8--8-8-5-5-5-5-5-6--6--6-6-|  /  |
A|-6--6--6-6-8--8-8-8-8--6--6-6-6-6--8--8--8-8-3-3-3-3-3-6--6--6-6-| /   |
E|-4--4--4-4-6--6-6-6-6--------------6--6--6-6-----------4--4--4-4-|/    |
                                                                         |
  ------------------------------------------------------------------------
  |
\ | /
 \|/

e|-------------------------------------------|\
b|-------------------------------------------| \
G|-8--8-8-8-8------------5-5-5-5-5-----------|  \___ x1
D|-8--8-8-8-8--8--8--8-8-5-5-5-5-5-6--6--6-6-|  /  
A|-6--6-6-6-6--8--8--8-8-3-3-3-3-3-6--6--6-6-| /   
E|-------------6--6--6-6-----------4--4--4-4-|/ 

Bridge:

E|----------------------------------------------|\
B|----------------------------------------------| \
G|----------------------------------------------|  \___ x1
D|-----------------------------8-8-8-8-8-8-8--8-|  /
A|-6-6-6-6-6-6-6-6-6-6-6-6-6-6-8-8-8-8-8-8-8--8-| /
E|-4-4-4-4-4-4-4-4-4-4-4-4-4-4-6-6-6-6-6-6-6--6-|/

End:

e|----------|\
b|----------| \
G|-8-----3--|  \__x2
D|-8--8--3--|  /
A|-6--8--1--| /
E|----6-----|/

So, that's it...

Denis


   
            
Submit corrections

comments powered by Disqus
↑ Back to top | Green Day Tabs for Basket Case. Lyrics for acoustic guitar and electric guitar. 1 Tablatures and chords are parodies/interpretations of the original songs. You may use it for private study, scholarship, research or language learning purposes only