» » »

Green Day, Basket Case Tabs (ver.4)

Artists:  A B C D E F G H I J K L M N O P Q R S T U V W X Y Z # 

Basket Case Tabs (ver.4)

Green Day Tabs
 Rating:
4/5 (4 votes)
Basket Case lessons Tabs too difficult? Try these video lessons and learn fast
1
                (Intro)
basket case intro by green day off of the cd dookie

e|---------------------------------------------------------------
A|---------------------------------------------------------------
D|---------------------------------------------------------------
G|----------------4-4-4-4-4-4-4-4-6-6-6-6-6-6-6-6----------------
B|2-2-2-2-2-2-2-2-2-2-2-2-2-2-2-2-4-4-4-4-4-4-4-4-6-6-6-6-6-6-6-6
E|0-0-0-0-0-0-0-0---------------------------------4-4-4-4-4-4-4-4



e|-----------------------------------------------
A|-----------------------------------------------
D|-----------------------------------------------
G|----------------9-9-9-9-9-9-9-9----------------
B|7-7-7-7-7-7-7-7-7-7-7-7-7-7-7-7-9-9-9-9-9-9-9-9
E|5-5-5-5-5-5-5-5-----------------7-7-7-7-7-7-7-7

i dont know how many times you hafta do this i'm just bored so i did
it. and its only the intro and other parts of the song not the whole 
song.
            
Submit corrections

comments powered by Disqus
↑ Back to top | Green Day Tabs for Basket Case. Lyrics for acoustic guitar and electric guitar. 1 Tablatures and chords are parodies/interpretations of the original songs. You may use it for private study, scholarship, research or language learning purposes only