» » »

Green Day, At The Library Bass tabs (ver.1)

Artists:  A B C D E F G H I J K L M N O P Q R S T U V W X Y Z # 

At The Library Bass tabs (ver.1)

Green Day Tabs
4/5 (4 votes)
At The Library lessons Tabs too difficult? Try these video lessons and learn fast
The tuning for this song is a bit of a mystery for me. I’m not sure if the songs on this
are in standard, or a half-step down like other older Green Day stuff. For the sake of
I kept it in standard. Also, I’m not sure if the little fill at the end of the chorus is 
but it’s the closest I could get it, and it sounds okay.


G:-------|  |----------|      |----------|
D:-------|  |----------| x3   |----------|
A:-22222-|  |-555--333-|      |-22222222-|
E:-------|  |----------|      |----------|

|----5----4----5----7-| x4


Verse x8

|------------------|      |-------------5p3p25-|
|------------------| x3   |--------------------|
|--------5-55-5555-|      |-3-3-3333-335-------|
|-0-0-000----------|      |--------------------|

Verse x8


Verse x8


Verse x8

|----------|             |-------|
|----------| x3   Rest   |-------|
|-555--333-|             |-------|
|----------|             |---3---|
Submit corrections

comments powered by Disqus
↑ Back to top | Green Day Bass for At The Library. Lyrics for acoustic guitar and electric guitar. Tablatures and chords are parodies/interpretations of the original songs. You may use it for private study, scholarship, research or language learning purposes only