» » »

Green Day, Ashley Bass tabs (ver.2)

Artists:  A B C D E F G H I J K L M N O P Q R S T U V W X Y Z # 

Ashley Bass tabs (ver.2)

Green Day Tabs
 Rating:
4/5 (4 votes)
Ashley lessons Tabs too difficult? Try these video lessons and learn fast
                -----------------------------------------------------------------------------
                             Ashley - Green Day
-----------------------------------------------------------------------------


Track: 8

Tuning: Standard

Chorus                                                                        
G|-----------------------------------------------------------------------|
D|-----------------------------------------------------------------------|
A|-7-7-7-7-7-5-5-5-7-7-7-10-10-10-10-------------10-10-10-10-10-10-10-10-| x2
E|-----------------------------------10-10-10-10-------------------------|

Verse

G|--------------------------------------------------------------------|
D|--------------------------------------------------------------------|
A|-----------------------------------5-5-5-5-5-5-5-5--0-0-0-0-0-0-0-0-|
E|-0-0-0-0-0-0-0-0--3-3-3-3-3-3-3-3-----------------------------------|

G|--------------------------------------------------------------------|
D|--------------------------------------------------------------------|
A|-----------------------------------5-5-5-5-5-5-5-5------------------|
E|-0-0-0-0-0-0-0-0--3-3-3-3-3-3-3-3-------------------7-7-7-7-7-7-7-7-|

G|---------------------------------------------------------------------|
D|-----------------------------------7-7-7-7-7-7-7-7-------------------|
A|-7-7-7-7-7-7-7-7--5-5-5-5-5-5-5-5-------------------7-7-7-7-7-7-7-7--| x2
E|---------------------------------------------------------------------|

Pre-Chorus                                                             
e|--------------------------------------------------------------------|
B|--------------------------------------------------------------------|
G|--------------------------------------------------------------------|
D|--------------------------------------------------------------------|
A|-3-3-3-3-3-3-3-3-------------------5-5-5-5-5-5-5-5--7-7-7-7-7-7-7-7-| x3
E|------------------3-3-3-3-3-3-3-3-----------------------------------|

e|-------------------------------------------------------------------|
B|-------------------------------------------------------------------|
G|-------------------------------------------------------------------|
D|-------------------------------------------------------------------|
A|-3-3-3-3-3-3-3-3-------------------2-2-2-2-2-2-2-2-2-2-2-2-2-2-2-2-|
E|------------------3-3-3-3-3-3-3-3----------------------------------|

Bridge

G|--------------------------------------------------------------------|
D|--------------------------------------------------------------------|
A|--------------------------------------------------------------------|
E|-3-3-3-3-3-3-3-3--0-0-0-0-0-0-0-0--3-3-3-3-3-3-3-3--0-0-0-0-0-0-0-0-|

G|--------------------------------------------------|
D|--------------------------------------------------|
A|-3-3-3-3-3-3-3-3----------------------------------|
E|------------------3-3-3-3-3-3-3-3-3-3-3-3-3-3-3-3-|

Outro

G|--------------------|
D|--------------------|
A|--------------------|
E|-0-0--0-0--0-0--0-0-|


Playing Order

Chorus
Verse
Pre-Chorus
Chorus x4
Bridge
Verse
Pre-Chorus 
Chorus x2
Outro



Have Fun


| /  slide up
| \  slide down
| h  hammer-on
| p  pull-off
| ~  vibrato
| +  harmonic
| x  Mute note
=============================================================================
            
Submit corrections

comments powered by Disqus
↑ Back to top | Green Day Bass for Ashley. Lyrics for acoustic guitar and electric guitar. Tablatures and chords are parodies/interpretations of the original songs. You may use it for private study, scholarship, research or language learning purposes only