» » »

Are We The Waiting Bass tabs (ver.3)

Artists:  A B C D E F G H I J K L M N O P Q R S T U V W X Y Z # 

Are We The Waiting Bass tabs (ver.3)

Green Day
Rating:
0/5 (0 votes)

Hard to play? Try these video lessons and learn fast.
                (Live)
-----------------------------------------------------------------------------
                             Are We The Waiting (Live) - Green Day
-----------------------------------------------------------------------------


Track: 4

Great song to lead into Saint Jimmy, a perfect pair to play live.
It is also a really handy song to get you're vocals more relaxed
I've tabbed this for the Bullet in a bible concert but it's exactly
the same if you want to play based off the version on American Idiot


The Bass is simply 5th fret E and A string


Tuning: Standard

Intro

Drums play the simple little; Bass, Snare, Tom; Drum beat while Billie talks to the crowd
The guitar then plays the riff once then the bass and second guitar come in


Verse 1

G|-------------------------------------------|
D|-------------------------------------------|
A|-------------5----5--------------5----5----|
E|-/-5----5--------------5----5--------------|

Chorus

G|----------------------------------------------------------------|
D|----------------------------------------------------------------|
A|-----------------5-------------5------------------5-------------|
E|--5-----------------------5---------5--------5---------5--------|

 "And Screamin'"

G|-----------------------------------------|
D|-----------------------------------------|
A|------------5-------------------5--------|
E|--5-------------------5------------------|

Chorus 2

G|------------------------------------------------------------|
D|------------------------------------------------------------|
A|------------5----5---------5------------------5-------------|
E|--5----5--------------5---------5--------5---------5--------|

 "And Screamin'"

G|--------------------|
D|--------------------|
A|------------5----5--|x5
E|--5----5------------|



Playing Order

Intro
Verse
Chorus
Verse
Chorus 2


Very Easy Song


| /  slide up
| \  slide down
| h  hammer-on
| p  pull-off
| ~  vibrato
| +  harmonic
| x  Mute note
=============================================================================
            
Hard to play? Try these video lessons and learn fast. | Correct




comments powered by Disqus
↑ Back to top | Tablatures and chords are parodies/interpretations of the original songs. You may use it for private study, scholarship, research or language learning purposes only