>
 >
Are We The Waiting 3

Are We The Waiting 3 Guitar Tabs

Green Day - Are We The Waiting 3 chords, tabs, tablatures, lyrics

Guitar lessons | Add/correct | Request | Top 50 tabs Artists:  A B C D E F G H I J K L M N O P Q R S T U V W X Y Z 0-9

Are We The Waiting 3 Guitar Tabs – Green Day

CD, Sheet music, Poster

Do you like Are We The Waiting 3? Share with your friends now
Bass TabsBass Tabs v2ChordsChords v2TabsTabs v2Tabs v3Tabs v4Ukulele
===========================================================
===========================================================


Tuning: Standard

Note: I have alot more detail than the other tabs,
      I added lyrics above each measure where the song plays,
      and to my knowledge, every guitar note I could tab
      is included, enjoy.


Key:

PM----| = palm mute
~ = vibrato
# (#) = let note ring

===========================

Guitar 1 - Lead
Guitar 2 - Rhythem

===========================
Intro
===========================

 Guitar 1
|----------------------------2----------2-------|
|----2-----------2----------3---3------3---3----|
|---2---2-------2---2------2-------2--2-------2-|
|--2-------2---2-------2-0-----------0----------|
|-0----------0----------------------------------|
|-----------------------------------------------|


===========================
Verse 1
===========================

      "Stary nights, city lights coming down over me"

 Guitar 1
|------------------------------2----------2---------|
|--------2----------2---------3---3------3---3------|
|-------2---2------2---2-----2-------2--2-------2---|
|------2-------2--2-------2-0----------0------------|
|-----0----------0----------------------------------|
|---------------------------------------------------|
|                                                   |
|Guitar 2                                           |
|---------------------------------------------------|
|---------------------------------------------------|
|---------------------------------------------------|
|---------------------------------------------------|
|---------------------------------------------------|
|-12s2---(2)----------------------------------------|



"Sky scrapers, star gazers in my head"

 Guitar 1
|--------------------------2----------2---------|
|----2----------2---------3---3------3---3------|
|---2---2------2---2-----2-------2--2-------2---|
|--2-------2--2-------2-0----------0------------|
|-0----------0----------------------------------|
|-----------------------------------------------|



"Are we we are, are we we are the waiting unknown"

Guitar 1
|--------------------------2----------2---------|
|----2----------2---------3---3------3---3------|
|---2---2------2---2-----2-------2--2-------2---|
|--2-------2--2-------2-0----------0------------|
|-0----------0----------------------------------|
|-----------------------------------------------|



"This dirty town was burning down in my dreams.."

 Guitar 1
|----6----------4----------2----------2-------------|
|---7---7------5---5------3---3------3---3----------|
|--6-------6--4-------4--2-------2--2-------2-------|
|-4----------2----------0----------0----------------|
|---------------------------------------------------|
|---------------------------------------------------|



"Lost and found city bound in my dreams...and screaming"

 Guitar 1
|----6----------4----------2----------2----------------|
|---7---7------5---5------3---3------3---3-------------|
|--6-------6--4-------4--2-------2--2-------2----------|
|-4----------2----------0----------0-------------------|
|------------------------------------------------------|
|------------------------------------------------------|
|                                                      |
|Guitar 2                                              |
|------------------------------------------------------|
|------------------------------------------------------|
|------------------------------------------------------|
|------------------------------------------------------|
|------------------------------------------------------|
|-------------------------------------------------12s2-|



===========================
Chorus 1
===========================

"Are we we are, are we we are the waiting and screaming"

 Guitar 1
|--------------------------2----------2---------|
|----2----------2---------3---3------3---3------|
|---2---2------2---2-----2-------2--2-------2---|
|--2-------2--2-------2-0----------0------------|
|-0----------0----------------------------------|
|-----------------------------------------------|
|                                               |
|Guitar 2                                       |
|-----------------------------------------------|
|-----------------------3-(3)-------------------|
|-2-(2)-----------------2-(2)-------------------|
|-2-(2)-----------------0-(0)-------------------|
|-0-(0)-----------------------------------------|
|------------------------------------------12s2-|



"Are we we are, are we we are the waiting"

 Guitar 1
|--------------------------2----------2---------|
|----2----------2---------3---3------3---3------|
|---2---2------2---2-----2-------2--2-------2---|
|--2-------2--2-------2-0----------0------------|
|-0----------0----------------------------------|
|-----------------------------------------------|
|                                               |
|Guitar 2                                       |
|-----------------------------------------------|
|-----------------------3-(3)-------------------|
|-2-(2)-----------------2-(2)-------------------|
|-2-(2)-----------------0-(0)-------------------|
|-0-(0)-----------------------------------------|
|-----------------------------------------------|




===========================
Verse 2
===========================

"Forget me nots and second thoughts live in isolation"

 Guitar 1
|--------------------------2----------2---------|
|----2----------2---------3---3------3---3------|
|---2---2------2---2-----2-------2--2-------2---|
|--2-------2--2-------2-0----------0------------|
|-0----------0----------------------------------|
|-----------------------------------------------|
|                                               |
|Guitar 2                                       |
|-----------------------------------------------|
|-----------------------------------------------|
|-----------------------2-(2)------2-(2)--------|
|-2-(2)------2-(2)------0-(0)------0-(0)--------|
|-0-(0)------0-(0)------------------------------|
|-----------------------------------------------|



"Heads or tails and fairytales in my mind"

 Guitar 1
|--------------------------2----------2---------|
|----2----------2---------3---3------3---3------|
|---2---2------2---2-----2-------2--2-------2---|
|--2-------2--2-------2-0----------0------------|
|-0----------0----------------------------------|
|-----------------------------------------------|
|                                               |
|Guitar 2                                       |
|-----------------------------------------------|
|-----------------------------------------------|
|-----------------------2-(2)------2-(2)--------|
|-2-(2)------2-(2)------0-(0)------0-(0)--------|
|-0-(0)------0-(0)------------------------------|
|-----------------------------------------------|



"Are we we are, are we we are the waiting unknown"

|--------------------------2----------2---------|
|----2----------2---------3---3------3---3------|
|---2---2------2---2-----2-------2--2-------2---|
|--2-------2--2-------2-0----------0------------|
|-0----------0----------------------------------|
|-----------------------------------------------|
|                                               |
|Guitar 2                                       |
|-----------------------------------------------|
|-----------------------3-(3)------3-(3)--------|
|-2-(2)------2-(2)------2-(2)------2-(2)--------|
|-2-(2)------2-(2)------0-(0)------0-(0)--------|
|-0-(0)------0-(0)------------------------------|
|------------------------------------------12s2-|



"The rage and love, the story of my life"

 Guitar 1
|----6----------4----------2----------2-------------|
|---7---7------5---5------3---3------3---3----------|
|--6-------6--4-------4--2-------2--2-------2-------|
|-4----------2----------0----------0----------------|
|---------------------------------------------------|
|---------------------------------------------------|
|                                                   |
|Guitar 2                                           |
|---------------------------------------------------|
|---------------------------------------------------|
|---------------------------------------------------|
|-----------------------2-(2)-----------------------|
|-6-(6)------4-(4)------0-(0)-----------------------|
|-4-(4)------2-(2)----------------------------------|




"The Jesus of Suburbia is a lie....... and screaming"

 Guitar 1
|----6----------4----------2----------2-------------|
|---7---7------5---5------3---3------3---3----------|
|--6-------6--4-------4--2-------2--2-------2-------|
|-4----------2----------0----------0----------------|
|---------------------------------------------------|
|---------------------------------------------------|
|                                                   |
|Guitar 2                                           |
|---------------------------------------------------|
|---------------------------------------------------|
|-----------------------2-(2)-----------------------|
|-6-(6)------4-(4)------2-(2)-----------------------|
|-6-(6)------4-(4)------0-(0)-----------------------|
|-4-(4)------2-(2)-----------------------------12s2-|




===========================
Chorus 2
===========================

"Are we we are, are we we are the waiting and screaming"

 Guitar 1
|--------------------------2----------2---------|
|----2----------2---------3---3------3---3------|
|---2---2------2---2-----2-------2--2-------2---|
|--2-------2--2-------2-0----------0------------|
|-0----------0----------------------------------|
|-----------------------------------------------|
|                                               |
|Guitar 2                                       |
|-----------------------------------------------|
|-----------------------3-(3)-------------------|
|-2-(2)-----------------2-(2)-------------------|
|-2-(2)-----------------0-(0)-------------------|
|-0-(0)-----------------------------------------|
|------------------------------------------12s2-|



"Are we we are, are we we are the waiting unknown"

 Guitar 1
|--------------------------2----------2---------|
|----2----------2---------3---3------3---3------|
|---2---2------2---2-----2-------2--2-------2---|
|--2-------2--2-------2-0----------0------------|
|-0----------0----------------------------------|
|-----------------------------------------------|
|                                               |
|Guitar 2                                       |
|-----------------------------------------------|
|-----------------------3-(3)-------------------|
|-2-(2)-----------------2-(2)-------------------|
|-2-(2)-----------------0-(0)-------------------|
|-0-(0)-----------------------------------------|
|------------------------------------------12s2-|



"Are we we are, are we we are the waiting and screaming"

 Guitar 1
|--------------------------2----------2---------|
|----2----------2---------3---3------3---3------|
|---2---2------2---2-----2-------2--2-------2---|
|--2-------2--2-------2-0----------0------------|
|-0----------0----------------------------------|
|-----------------------------------------------|
|                                               |
|Guitar 2                                       |
|-----------------------------------------------|
|-----------------------3-(3)-------------------|
|-2-(2)-----------------2-(2)-------------------|
|-2-(2)-----------------0-(0)-------------------|
|-0-(0)-----------------------------------------|
|------------------------------------------12s2-|


"Are we we are, are we we are the waiting unknown"

 Guitar 1
|--------------------------2----------2---------|
|----2----------2---------3---3------3---3------|
|---2---2------2---2-----2-------2--2-------2---|
|--2-------2--2-------2-0----------0------------|
|-0----------0----------------------------------|
|-----------------------------------------------|
|                                               |
|Guitar 2                                       |
|-----------------------------------------------|
|-----------------------3-(3)-------------------|
|-2-(2)-----------------2-(2)-------------------|
|-2-(2)-----------------0-(0)-------------------|
|-0-(0)-----------------------------------------|
|------------------------------------------12s2-|



"Are we we are, are we we are the waiting unknown"

 Guitar 1
|--------------------------2----------2---------|
|----2----------2---------3---3------3---3------|
|---2---2------2---2-----2-------2--2-------2---|
|--2-------2--2-------2-0----------0------------|
|-0----------0----------------------------------|
|-----------------------------------------------|
|                                               |
|Guitar 2                                       |
|-----------------------------------------------|
|-----------------------3-(3)-------------------|
|-2-(2)-----------------2-(2)-------------------|
|-2-(2)-----------------0-(0)-------------------|
|-0-(0)-----------------------------------------|
|------------------------------------------12s2-|



===========================
The End
===========================





Comments


Popular Green Day tabs & chords
86 Bass Tabs
The Ballad Of Wilhelm Fink Bass Tabs
The Judge's Daughter 1 Bass Tabs
Brat 2 Chords
Coming Clean 1 Chords
Sassafras Roots Chords
Suffocate Chords
Boulevard Of Broken Dreams 5 Tabs
Poprocks And Coke Tabs
Tired Of Waiting For You Tabs


Song lyrics



↑ Back to top | Tablatures and chords are parodies/interpretations of the original songs. You may use it for private study, scholarship, research or language learning purposes only
© 2014 AZChords.com Contact us | Privacy policy | DMCA | Add/correct tabs | Request tabs | Top 50 tabs