» » »

Are We The Waiting Bass tabs (ver.2)

Artists:  A B C D E F G H I J K L M N O P Q R S T U V W X Y Z # 

Are We The Waiting Bass tabs (ver.2)

Green Day
Rating:
0/5 (0 votes)

Hard to play? Try these video lessons and learn fast.
                Ok so this is my first tab really easy song to play on bass :P

Standard tuning

[0:16]                    [0:21]             [0:25]
|-------------------------------------------------------------|
|-------------------------------------------------------------|
|---------------------------5---------------------------------|
|----5------------------------------------------5-------------|

[0:30]                   [0:34]              [0:39]
|-------------------------------------------------------------|
|-------------------------------------------------------------|
|----5-----------------------------------------5--------------|
|-------------------------5-----------------------------------|

[0:43]          [0:45]          [0:47]       [0:51]
|-------------------------------------------------------------|
|-------------------------------------------------------------|
|---9-------------7---------------5------------9--------------|
|-------------------------------------------------------------|

[0:53]          [0:55]           [1:00]           [1:04]
|-------------------------------------------------------------|
|-------------------------------------------------------------|
|---7-------------5---------------------------------5---------|
|----------------------------------5--------------------------|

[1:09]           [1:13]           [1:17]    [1:19]     [1:21]
|-------------------------------------------------------------|
|-------------------------------------------------------------|
|-----------------5--------------------------------------5----|
|---5------------------------------5-----------5--------------|

[1:23]       [1:26]       [1:28]      [1:30]        [1:32]
|-------------------------------------------------------------|
|-------------------------------------------------------------|
|---5-----------------------------------5--------------5------|
|--------------5-------------5--------------------------------|

[1:34]        [1:36]       [1:38]     [1:40]               
|-------------------------------------------------------------|
|-------------------------------------------------------------|
|---------------------------5------------5--------------------|
|---5-----------5---------------------------------------------|

[1:43]        [1:45]        [1:47]            [1:51]
|-------------------------------------------------------------|
|-------------------------------------------------------------|
|---9------------7-------------5-----------------9------------|
|-------------------------------------------------------------|

[1:53]        [1:55]        [2:00]           [2:04]
|-------------------------------------------------------------|
|-------------------------------------------------------------|
|--7-------------5------------------------------5-------------|
|-----------------------------5-------------------------------|

[2:08]        [2:13]          [2:17]              [2:21]
|-------------------------------------------------------------|
|-------------------------------------------------------------|
|----------------5-----------------------------------5--------|
|---5----------------------------5----------------------------|

[2:26]          [2:30]        [2:34]             [2:38]
|-------------------------------------------------------------|
|-------------------------------------------------------------|
|------------------5--------------------------------5---------|
|---5---------------------------5-----------------------------|

......Then it goes straight in to St. Jimmy.......


Hey i was pretty bored. Im all new to the whole tabbing thing and im new to a bass
guitar. I picked up a few bits from other tabs but tried to make sure it was totally
correct! Im only 14 but im sure its ok!
            
Hard to play? Try these video lessons and learn fast. | Correct




comments powered by Disqus
↑ Back to top | Tablatures and chords are parodies/interpretations of the original songs. You may use it for private study, scholarship, research or language learning purposes only