» » »

Green Day, Are We The Waiting Tabs (ver.2)

Artists:  A B C D E F G H I J K L M N O P Q R S T U V W X Y Z # 

Are We The Waiting Tabs (ver.2)

Green Day Tabs
 Rating:
4/5 (4 votes)
Are We The Waiting lessons Tabs too difficult? Try these video lessons and learn fast
                morning people, this is my first tab so giv me a break if its a wee bit wrong.. the
other tabs bridge 2 the chorus sounded really off so this is what i think it is..
happy strumming (and pickin.. whatever)

Tuning: Standard

Intro:
---------------------------------2-----------2-------|
-------2-----------2-----------3---3-------3---3-----|
-----2---2-------2---2-------2-------2---2-------2---|
---2-------2---2-------2---0-----------0-------------|
-0-----------0---------------------------------------|
-----------------------------------------------------|

Verse:
---------------------------------2-----------2-------|
-------2-----------2-----------3---3-------3---3-----|
-----2---2-------2---2-------2-------2---2-------2---|
---2-------2---2-------2---0-----------0-------------| x3
-0-----------0---------------------------------------|
-----------------------------------------------------|

Bridge:
--------------------------------------------------------|
--------11-------------9------------7------------7------|
------11---11--------9---9--------7---7--------7---7----|
----11-------11----9-------9----7-------7----7-------7--|
--9--------------7------------5------------5------------|
--------------------------------------------------------|

chorus:
---------------------------------2-----------2-------|
-------2-----------2-----------3---3-------3---3-----|
-----2---2-------2---2-------2-------2---2-------2---|
---2-------2---2-------2---0-----------0-------------| x2
-0-----------0---------------------------------------|
-----------------------------------------------------|

verse:

---------------------------------2-----------2-------|
-------2-----------2-----------3---3-------3---3-----|
-----2---2-------2---2-------2-------2---2-------2---|
---2-------2---2-------2---0-----------0-------------| x3
-0-----------0---------------------------------------|
-----------------------------------------------------|

Bridge:
--------------------------------------------------------|
--------11-------------9------------7------------7------|
------11---11--------9---9--------7---7--------7---7----|
----11-------11----9-------9----7-------7----7-------7--|
--9--------------7------------5------------5------------|
--------------------------------------------------------|

Outro:
---------------------------------2-----------2-------|
-------2-----------2-----------3---3-------3---3-----|
-----2---2-------2---2-------2-------2---2-------2---|
---2-------2---2-------2---0-----------0-------------| x5
-0-----------0---------------------------------------|
-----------------------------------------------------|
            
Submit corrections

comments powered by Disqus
↑ Back to top | Green Day Tabs for Are We The Waiting. Lyrics for acoustic guitar and electric guitar. Tablatures and chords are parodies/interpretations of the original songs. You may use it for private study, scholarship, research or language learning purposes only