» » »

Green Day, Amy Tabs (ver.1)

Artists:  A B C D E F G H I J K L M N O P Q R S T U V W X Y Z # 

Amy Tabs (ver.1)

Green Day Tabs
 Rating:
4/5 (4 votes)
Amy lessons Tabs too difficult? Try these video lessons and learn fast
                Instrument: Guitar
Submitter: GuitarPunk94

Feel free to rate + comment! Join the GreenDayCommunity(GDC) :-)


*The notes might not be 100% correct to the studio version,
 but its a nice cover and sounds close to the original song which
 Billie Joe Armstrong wrote in no more than 20 minutes before
 the very first secret show at the Tiki Bar.

*Let all notes ring.


Standard Tuning



Key:
-  - Nothing
x  - Mute strings
/ - Slide up or down




 Intro:
|-------------------------------|
|--7-7------------7-7-----------|
|--8--8-----6-----8--8-----6----|
|------8--8-88-8------8--8-88-8-|
|-6-6------8--8--6-6------8--8--|
|--------6--------------6-------|

 Verse 1:
|-----------------------------------------|
|--11-11--------7----------------11-------|
|--11-1111----8-88-8--8-8----11--1111--11-|
|---------11---8--8---9--9-----11----11---|
|-9--9-------6------------9-9-------------|
|--------------------7-7------------------|

|------------------------------------------|
|--11-11-----------------------------------|
|--11-1111------6-----8-8---------11-------|
|---------11--8-88-8--9--9----11----11--11-|
|-9--9---------8--8-------------11----11---|
|------------6-------7-7--7/99-------------|

|-----------------------------------------|
|--11-11--------7----------------11-------|
|--11-1111----8-88-8--8-8----11--1111--11-|
|---------11---8--8---9--9-----11----11---|
|-9--9-------6------------9-9-------------|
|--------------------7-7------------------|

|------------------------------------------x-|
|--11-11--------------------------------11-x-|
|--11-1111------6---------------------1111-x-|
|---------11--8-88-8---9-----11----11------x-|
|-9--9---------8--8---9----11--11-9--9-----x-|
|------------6-------7--7/9----------------x-|

 Chorus:
|----------------------------------------------------------------|
|--7---7--7-----11-----11----11-------7-7------------------------|
|--8-8--8--8----11-11----11----11-----8--8-----6-----------------|
|-----8--8--8--------11----11----11-------8--8-88-----9-----11---|
|-6-6--------6/9--9----------------9\6-6------8--8---9----11--11-|
|-------------------------------------------6-----6/7--7/9-------|

|---------------------------|
|-----11--------------------|
|-----1111--11---8-----10---|
|--11-----11-----9-----11---|
|-9--9----------9----11--11-|
|--------------7--7/9-------|

 Bridge:
|-------------------------------|
|--7-7------------7-7-----------|
|--8--8-----6-----8--8-----6----|
|------8--8-88-8------8--8-88-8-|
|-6-6------8--8--6-6------8--8--|
|--------6--------------6-------|

 Verse 2:
|-----------------------------------------|
|--11-11--------7----------------11-------|
|--11-1111----8-88-8--8-8----11--1111--11-|
|---------11---8--8---9--9-----11----11---|
|-9--9-------6------------9-9-------------|
|--------------------7-7------------------|

|------------------------------------------|
|--11-11-----------------------------------|
|--11-1111------6-----8-8---------11-------|
|---------11--8-88-8--9--9----11----11--11-|
|-9--9---------8--8-------------11----11---|
|------------6-------7-7--7/99-------------|

|-----------------------------------------|
|--11-11--------7----------------11-------|
|--11-1111----8-88-8--8-8----11--1111--11-|
|---------11---8--8---9--9-----11----11---|
|-9--9-------6------------9-9-------------|
|--------------------7-7------------------|

|------------------------------------------x-|
|--11-11--------------------------------11-x-|
|--11-1111------6---------------------1111-x-|
|---------11--8-88-8---9-----11----11------x-|
|-9--9---------8--8---9----11--11-9--9-----x-|
|------------6-------7--7/9----------------x-|

 Chorus:
|----------------------------------------------------------------|
|--7---7--7-----11-----11----11-------7-7------------------------|
|--8-8--8--8----11-11----11----11-----8--8-----6-----------------|
|-----8--8--8--------11----11----11-------8--8-88-----9-----11---|
|-6-6--------6/9--9----------------9\6-6------8--8---9----11--11-|
|-------------------------------------------6-----6/7--7/9-------|

|---------------------------|
|-----11--------------------|
|-----1111--11---8-----10---|
|--11-----11-----9-----11---|
|-9--9----------9----11--11-|
|--------------7--7/9-------|

 Bridge:
|--------------------------------------------------------------|
|-9----9--9-----------------9----9--9999-----------------------|
|-9--9-99-99-9--8-8-7--7----9--9-99-9999--8-----------10-------|
|-9---9--9--9---9-9-99-99-9-9---9--9------9-9-----11--1111--11-|
|-7-7--------------9--9--9--7-7--------------9------11----11---|
|--------------7-7-----------------------7-7--7/99-------------|

 Verse 3:
|-----------------------------------------|
|--11-11--------7----------------11-------|
|--11-1111----8-88-8--8-8----11--1111--11-|
|---------11---8--8---9--9-----11----11---|
|-9--9-------6------------9-9-------------|
|--------------------7-7------------------|

|------------------------------------------|
|--11-11-----------------------------------|
|--11-1111------6-----8-8---------11-------|
|---------11--8-88-8--9--9----11----11--11-|
|-9--9---------8--8-------------11----11---|
|------------6-------7-7--7/99-------------|

|-----------------------------------------|
|--11-11--------7----------------11-------|
|--11-1111----8-88-8--8-8----11--1111--11-|
|---------11---8--8---9--9-----11----11---|
|-9--9-------6------------9-9-------------|
|--------------------7-7------------------|

|------------------------------------------x-|
|--11-11--------------------------------11-x-|
|--11-1111------6---------------------1111-x-|
|---------11--8-88-8---9-----11----11------x-|
|-9--9---------8--8---9----11--11-9--9-----x-|
|------------6-------7--7/9----------------x-|

 Chorus:
|----------------------------------------------------------------|
|--7---7--7-----11-----11----11-------7-7------------------------|
|--8-8--8--8----11-11----11----11-----8--8-----6-----------------|
|-----8--8--8--------11----11----11-------8--8-88-----9-----11---|
|-6-6--------6/9--9----------------9\6-6------8--8---9----11--11-|
|-------------------------------------------6-----6/7--7/9-------|

|-----------------------------------------------------|
|-----11------------------------11--------------------|
|-----1111--11---8-----10-------1111--11---8-----10---|
|--11-----11-----9-----11----11-----11-----9-----11---|
|-9--9----------9----11--11-9--9----------9----11--11-|
|--------------7--7/9--------------------7--7/9-------|

 Outro:
|-----------------------------------------------------------------|
|--7-7------------7-7------------7-7------------7-7------------11-|
|--8--8-----6-----8--8-----6-----8--8-----6-----8--8-----6-----11-|
|------8--8-88-8------8--8-88-8------8--8-88-8------8--8-88-8--11-|
|-6-6------8--8--6-6------8--8--6-6------8--8--6-6------8--8---9--|
|--------6--------------6--------------6--------------6-----------|
            
Submit corrections

comments powered by Disqus
↑ Back to top | Green Day Tabs for Amy. Lyrics for acoustic guitar and electric guitar. Tablatures and chords are parodies/interpretations of the original songs. You may use it for private study, scholarship, research or language learning purposes only