» » »

Green Day, American Idiot Bass tabs (ver.5)

Artists:  A B C D E F G H I J K L M N O P Q R S T U V W X Y Z # 

American Idiot Bass tabs (ver.5)

Green Day Tabs
Rating:
0/5 (0 votes)
American Idiot lessons Tabs too difficult? Try these video lessons and learn fast
                
AMERICAN IDIOT (Bassline)





 

 

Gtr I (Eb Ab Db Gb) - 'Staff'


  Q=185
 4/4
  Gtr I
  W          H    Q  Q    E E E E +S  S E E E   +E  E Q  Q  Q
|----------|------------|---------------------|----------------|
|----------|------------|---------------------|----------------|
|----------|------------|-0-0---5-(5)---5-----|-------5--------|
|----------|---------3--|-----0-----------0-3-|-(3)-3----5-----|


  E E E E +S  S E E E   +E  E Q  Q  Q    E E E E +S  S E E E   +E  E Q  Q  Q
|---------------------|----------------|---------------------|----------------|
|---------------------|----------------|---------------------|----------------|
|-------5-(5)---5-----|-------5--------|-0-0---5-(5)---5-----|-------5--------|
|-5-5-0-----------0-3-|-(3)-3----5--3--|-----0-----------0-3-|-(3)-3----5-----|


  W          W          E E E E +S  S E E E   +E  E Q  Q  Q
|----------|----------|---------------------|-----------------|
|----------|----------|---------------------|-----------------|
|----------|----------|-------5-(5)---5-----|-------5---------|
|----------|----------|-5-5-0-----------0-3-|-(3)-3----5--3---|


  W          W          E E E E +S  S E E E   +E  E Q  Q  Q
|----------|----------|---------------------|-----------------|
|----------|----------|---------------------|-----------------|
|----------|----------|-0-0---5-(5)---5-----|-------5---------|
|----------|----------|-----0-----------0-3-|-(3)-3----5------|


  W          W          E E E E +S  S E E E   +E  E Q  Q  Q
|----------|----------|---------------------|-----------------|
|----------|----------|---------------------|-----------------|
|----------|----------|-------5-(5)---5-----|-------5---------|
|----------|----------|-5-5-0-----------0-3-|-(3)-3----5--3---|


  W          W          E E E E +S  S E E E   +E  E Q  Q  Q
|----------|----------|---------------------|-----------------|
|----------|----------|---------------------|-----------------|
|----------|----------|-0-0---5-(5)---5-----|-------5---------|
|----------|----------|-----0-----------0-3-|-(3)-3----5------|


  Q  E E E E E E   +E  E E E E E E E   Q  E E E E E E   +E  E E E E E E E
|----------------|-------------------|----------------|-------------------|
|----------------|-------------------|----------------|-------------------|
|-5--5-5-5-5-5-5-|-(5)-5-5-5-5-5-5---|----------------|-------------------|
|----------------|-----------------0-|-5--5-5-5-5-5-5-|-(5)-5-5-5-5-5-5-0-|


  Q  E E E E E E   +E  E E E E E E E   Q  E E E E E E   +Q   E E E E E E
|----------------|-------------------|----------------|------------------|
|----------------|-------------------|----------------|------------------|
|-7--7-7-7-7-7-7-|-(7)-7-7-7-7-7-7-7-|----------------|------------------|
|----------------|-------------------|-5--5-5-5-5-5-5-|-(5)--5-5-5-5-5-5-|


  Q  E E E E E E   +E  E E E E E E E   Q  E E E E E E   +E  E E E E E E E
|----------------|-------------------|----------------|-------------------|
|----------------|-------------------|----------------|-------------------|
|-5--5-5-5-5-5-5-|-(5)-5-5-5-5-5-5---|----------------|-------------------|
|----------------|-----------------0-|-5--5-5-5-5-5-5-|-(5)-5-5-5-5-5-5-0-|


  Q  E E E E E E   E E E E E E E E   W          W
|----------------|-----------------|----------|------|
|----------------|-----------------|----------|------|
|-7--7-7-7-7-7-7-|-7-7-7-7-7-7-7-7-|----------|------|
|----------------|-----------------|----------|------|


  E E E E +S  S E E E   +E  E Q  Q  Q    E E E E +S  S E E E   +E  E Q  Q  Q
|---------------------|----------------|---------------------|----------------|
|---------------------|----------------|---------------------|----------------|
|-------5-(5)---5-----|-------5--------|-0-0---5-(5)---5-----|-------5--------|
|-5-5-0-----------0-3-|-(3)-3----5--3--|-----0-----------0-3-|-(3)-3----5-----|


  W          W          E E E E +S  S E E E   +E  E Q  Q  Q
|----------|----------|---------------------|-----------------|
|----------|----------|---------------------|-----------------|
|----------|----------|-------5-(5)---5-----|-------5---------|
|----------|----------|-5-5-0-----------0-3-|-(3)-3----5--3---|


  W          W          E E E E +S  S E E E   +E  E Q  Q  Q
|----------|----------|---------------------|-----------------|
|----------|----------|---------------------|-----------------|
|----------|----------|-0-0---5-(5)---5-----|-------5---------|
|----------|----------|-----0-----------0-3-|-(3)-3----5------|


  W          W          E E E E +S  S E E E   +E  E Q  Q  Q
|----------|----------|---------------------|-----------------|
|----------|----------|---------------------|-----------------|
|----------|----------|-------5-(5)---5-----|-------5---------|
|----------|----------|-5-5-0-----------0-3-|-(3)-3----5--3---|


  W          W          E E E E +S  S E E E   +E  E Q  Q  Q
|----------|----------|---------------------|-----------------|
|----------|----------|---------------------|-----------------|
|----------|----------|-0-0---5-(5)---5-----|-------5---------|
|----------|----------|-----0-----------0-3-|-(3)-3----5------|


  Q  E E E E E E   +E  E E E E E E E   Q  E E E E E E   +E  E E E E E E E
|----------------|-------------------|----------------|-------------------|
|----------------|-------------------|----------------|-------------------|
|-5--5-5-5-5-5-5-|-(5)-5-5-5-5-5-5---|----------------|-------------------|
|----------------|-----------------0-|-5--5-5-5-5-5-5-|-(5)-5-5-5-5-5-5-0-|


  Q  E E E E E E   +E  E E E E E E E   Q  E E E E E E   +Q   E E E E E E
|----------------|-------------------|----------------|------------------|
|----------------|-------------------|----------------|------------------|
|-7--7-7-7-7-7-7-|-(7)-7-7-7-7-7-7-7-|----------------|------------------|
|----------------|-------------------|-5--5-5-5-5-5-5-|-(5)--5-5-5-5-5-5-|


  Q  E E E E E E   +E  E E E E E E E   Q  E E E E E E   +E  E E E E E E E
|----------------|-------------------|----------------|-------------------|
|----------------|-------------------|----------------|-------------------|
|-5--5-5-5-5-5-5-|-(5)-5-5-5-5-5-5---|----------------|-------------------|
|----------------|-----------------0-|-5--5-5-5-5-5-5-|-(5)-5-5-5-5-5-5-0-|


  Q  E E E E E E   E E E E E E E E   W          W
|----------------|-----------------|----------|------|
|----------------|-----------------|----------|------|
|-7--7-7-7-7-7-7-|-7-7-7-7-7-7-7-7-|----------|------|
|----------------|-----------------|----------|------|


  E E E E +S  S E E E   +E  E Q  Q  Q    E E E E +S  S E E E   +E  E Q  Q  Q
|---------------------|----------------|---------------------|----------------|
|---------------------|----------------|---------------------|----------------|
|-------5-(5)---5-----|-------5--------|-0-0---5-(5)---5-----|-------5--------|
|-5-5-0-----------0-3-|-(3)-3----5--3--|-----0-----------0-3-|-(3)-3----5-----|


  E E E E +S  S E E E   +E  E Q  Q  Q    E E E E +S  S E E E   +E  E Q  Q  Q
|---------------------|----------------|---------------------|----------------|
|---------------------|----------------|---------------------|----------------|
|-------5-(5)---5-----|-------5--------|-0-0---5-(5)---5-----|-------5--------|
|-5-5-0-----------0-3-|-(3)-3----5--3--|-----0-----------0-3-|-(3)-3----5-----|


  Q  E E E E E E   +E  E E E E E E E   Q  E E E E E E   +E  E E E E E E E
|----------------|-------------------|----------------|-------------------|
|----------------|-------------------|----------------|-------------------|
|-5--5-5-5-5-5-5-|-(5)-5-5-5-5-5-5---|----------------|-------------------|
|----------------|-----------------0-|-5--5-5-5-5-5-5-|-(5)-5-5-5-5-5-5-0-|


  Q  E E E E E E   +E  E E E E E E E   Q  E E E E E E   +Q   E E E E E E
|----------------|-------------------|----------------|------------------|
|----------------|-------------------|----------------|------------------|
|-7--7-7-7-7-7-7-|-(7)-7-7-7-7-7-7-7-|----------------|------------------|
|----------------|-------------------|-5--5-5-5-5-5-5-|-(5)--5-5-5-5-5-5-|


  Q  E E E E E E   +E  E E E E E E E   Q  E E E E E E   +E  E E E E E E E
|----------------|-------------------|----------------|-------------------|
|----------------|-------------------|----------------|-------------------|
|-5--5-5-5-5-5-5-|-(5)-5-5-5-5-5-5---|----------------|-------------------|
|----------------|-----------------0-|-5--5-5-5-5-5-5-|-(5)-5-5-5-5-5-5-0-|


  Q  E E E E E E   E E E E E E E E   W          W
|----------------|-----------------|----------|------|
|----------------|-----------------|----------|------|
|-7--7-7-7-7-7-7-|-7-7-7-7-7-7-7-7-|----------|------|
|----------------|-----------------|----------|------|


  W          W          W          W
|----------|----------|----------|------|
|----------|----------|----------|------|
|----------|----------|----------|------|
|----------|----------|----------|------|


  W          W          W          W
|----------|----------|----------|------|
|----------|----------|----------|------|
|----------|----------|----------|------|
|----------|----------|----------|------|


  W          W          Q  E E E E E E   +E  E E E E E E E
|----------|----------|----------------|-------------------|
|----------|----------|----------------|-------------------|
|----------|----------|-5--5-5-5-5-5-5-|-(5)-5-5-5-5-5-5---|
|----------|----------|----------------|-----------------0-|


  Q  E E E E E E   +E  E E E E E E E   Q  E E E E E E   +E  E E E E E E E
|----------------|-------------------|----------------|-------------------|
|----------------|-------------------|----------------|-------------------|
|----------------|-------------------|-7--7-7-7-7-7-7-|-(7)-7-7-7-7-7-7-7-|
|-5--5-5-5-5-5-5-|-(5)-5-5-5-5-5-5-0-|----------------|-------------------|


  Q  E E E E E E   +Q   E E E E E E   Q  E E E E E E   +E  E E E E E E E
|----------------|------------------|----------------|-------------------|
|----------------|------------------|----------------|-------------------|
|----------------|------------------|-5--5-5-5-5-5-5-|-(5)-5-5-5-5-5-5---|
|-5--5-5-5-5-5-5-|-(5)--5-5-5-5-5-5-|----------------|-----------------0-|


  Q  E E E E E E   +E  E E E E E E E   Q  E E E E E E   E E E E E E E E
|----------------|-------------------|----------------|-----------------|
|----------------|-------------------|----------------|-----------------|
|----------------|-------------------|-7--7-7-7-7-7-7-|-7-7-7-7-7-7-7-7-|
|-5--5-5-5-5-5-5-|-(5)-5-5-5-5-5-5-0-|----------------|-----------------|


  W          W          E E E E +S  S E E E   +E  E Q  Q  Q
|----------|----------|---------------------|-----------------|
|----------|----------|---------------------|-----------------|
|----------|----------|-------5-(5)---5-----|-------5---------|
|----------|----------|-5-5-0-----------0-3-|-(3)-3----5--3---|


  E E E E +S  S E E E   +E  E Q  Q  Q    E E E E +S  S E E E   +E  E Q  Q  Q
|---------------------|----------------|---------------------|----------------|
|---------------------|----------------|---------------------|----------------|
|-0-0---5-(5)---5-----|-------5--------|-------5-(5)---5-----|-------5--------|
|-----0-----------0-3-|-(3)-3----5-----|-5-5-0-----------0-3-|-(3)-3----5--3--|


  W          E E E E E E Q
|----------|----------------*|
|----------|----------------*|
|----------|-----5-5--------*|
|----------|---3-----5------*|




--------------------------------------------------------------------------------


Duration Legend
---------------
W - whole; H - half; Q - quarter; E - 8th; S - 16th; T - 32nd; X - 64th; a - acciaccatura
+ - note tied to previous; . - note dotted; .. - note double dotted
Uncapitalized letters represent notes that are staccato (1/2 duration)
Irregular groupings are notated above the duration line
Duration letters will always appear directly above the note/fret number it represents the
duration for.  Duration letters with no fret number below them represent rests.  Multi-
bar rests are notated in the form Wxn, where n is the number of bars to rest for.  Low
melody durations appear below the staff

Tablature Legend
----------------
 h   - hammer-on
 p   - pull-off
 b   - bend
 pb  - pre-bend
 r   - bend release (if no number after the r, then release immediately)
 /\  - slide into or out of (from/to "nowhere")
 s   - legato slide
 S   - shift slide
 - natural harmonic
[n]  - artificial harmonic
n(n) - tapped harmonic
 ~   - vibrato
 tr  - trill
 T   - tap
 TP  - trem. picking
 PM  - palm muting
\n/  - tremolo bar dip; n = amount to dip
 \n  - tremolo bar down
 n/  - tremolo bar up
/n\  - tremolo bar inverted dip
 =   - hold bend; also acts as connecting device for hammers/pulls
 <> - volume swell (louder/softer)
 x   - on rhythm slash represents muted slash
 o   - on rhythm slash represents single note slash

Misc Legend
-----------
 |  - bar
||  - double bar
||o - repeat start
o|| - repeat end
*|  - double bar (ending)
 :  - bar (freetime)
 $  - Segno
 &  - Coda
Tempo markers -  = BPM(8/16=s8/s16), where s8 = swing 8ths, s16 = swing 16ths



--------------------------------------------------------------------------------
            

comments powered by Disqus
↑ Back to top | Green Day Bass for American Idiot. Lyrics for acoustic guitar and electric guitar. Tablatures and chords are parodies/interpretations of the original songs. You may use it for private study, scholarship, research or language learning purposes only