» » »

Green Day, American Idiot Bass tabs (ver.4)

Artists:  A B C D E F G H I J K L M N O P Q R S T U V W X Y Z # 

American Idiot Bass tabs (ver.4)

Green Day Tabs
 Rating:
4/5 (4 votes)
American Idiot lessons Tabs too difficult? Try these video lessons and learn fast
                Start at 3 seconds

G --------------------------------------------------------------------------
D --------------------------------------------------------------------------
A --------4--4-4-----4-----------4--4-4-----4------------4--4-4-----4-------
E 2-4-4-4--------2-2---4-X--4-4-4--------2-2---4-2--4-4-4--------2-2---4-X--

G ------------------------- W -------------------------
D ------------------------- A -------------------------   X2 
A -------4--4-4------4----- I ---------4--4-4-----4----
E x-4-4-4--------2-2---4-2- T -x-4-4-4--------2-2---4-X

G -----------------------------------------------------------------------
D -----------------------------------------------------------------------
A -4444444444444444------------------66666666666666666-------------------
E ------------------4444444444444444--------------------4444444444444444-
                                                           
G -----------------------------------------------------W
D -----------------------------------------------------A   3 seconds
A -4444444444444444------------------6666666666666666--I
E ------------------4444444444444444-------------------T        
                                                                  
G ---------------------------------------------------            
D ---------------------------------------------------
A -------4--4-4-----4-------------4--4-4-------4-----
E x-4-4-4--------2-2---4-2---4-4-4---------2-2---4-X-

G ------------------------ W ------------------------
D ------------------------ A ------------------------  X2 
A -------4--4-4-----4----- I --------4--4-4-----4----
E x-4-4-4--------2-2---4-2 T x-4-4-4--------2-2---4-X

G ----------------------------------------------------------------------
D ----------------------------------------------------------------------
A -4444444444444444------------------66666666666666666------------------
E ------------------4444444444444444-------------------4444444444444444-
                                                           
G -----------------------------------------------------W
D -----------------------------------------------------A  3 seconds
A -4444444444444444------------------6666666666666666--I
E ------------------4444444444444444-------------------T

G ---------------------------------------------------
D ---------------------------------------------------    
A --------4--4-4-----4-------------4--4-4------4-----
E x-4-4-4--------2-2---4-2---4-4-4---------2-2---4-X-
  
G ---------------------------------------------------
D ---------------------------------------------------    
A -------4--4-4-----4-------------4--4-4------4------
E -4-4-4--------2-2---4-2---4-4-4---------2-2---4-X--

G ---------------------------------------------------------------------
D ---------------------------------------------------------------------
A -4444444444444444------------------6666666666666666------------------
E ------------------4444444444444444------------------4444444444444444-

G ----------------------------------------------------S--
D ----------------------------------------------------T--
A -4444444444444444------------------6666666666666666-O--
E ------------------4444444444444444------------------P--
DO NOTHING!  
G -------------------------------------------------------
D -------------------------------------------------------
A -------------------------------------------------------
E -------------------------------------------------------

G ----------------------------------------------------------------------
D ----------------------------------------------------------------------
A -4444444444444444------------------66666666666666666------------------
E ------------------4444444444444444-------------------4444444444444444-
                                                           
G -----------------------------------------------------W-
D -----------------------------------------------------A-  3 seconds
A -4444444444444444------------------6666666666666666--I-
E ------------------4444444444444444-------------------T-

G --------------------------------------------------------------------------
D --------------------------------------------------------------------------
A ---------4--4-4-----4------------4--4-4-----4------------4--4-4-----4-----
E x-2-4-4-4--------2-2---4-2--4-4-4--------2-2---4-X--4-4-4--------2-2---4-X

G -R------------
D -E------------
A -S-----444----
E -T---------4--
            
Submit corrections

comments powered by Disqus
↑ Back to top | Green Day Bass for American Idiot. Lyrics for acoustic guitar and electric guitar. Tablatures and chords are parodies/interpretations of the original songs. You may use it for private study, scholarship, research or language learning purposes only