» » »

All The Time Bass tabs (ver.3)

Artists:  A B C D E F G H I J K L M N O P Q R S T U V W X Y Z # 

All The Time Bass tabs (ver.3)

Green Day
Rating:
0/5 (0 votes)

Hard to play? Try these video lessons and learn fast.
                Hey! This is my first Tab soooo i hope its good!
This is tuned E A D G

Verse 
G----------
D----------|
A-77-5-----|
E------5---|

Pre Chorus
G--------------|
D--------------|
A--7777777/----|
E--------------|

Chorus
G------------------|
D------------------|
A------------555---|
E-3/55555-333------|

Bridge

G---------------|
D---------------|
A----434---232--|
E--55-----3-----|

Ending
G----------|
D----------|
A--3-55----|
E----------|

*Guitar plays verse x2*
Verse x7
Pre Chorus
Chorus x6
Verse x9
Pre Chorus
Chorus x 4
Bridge x 4
Chorus x 4
Verse x 7
Pre Verse
Ending

Quite Simple
            
Hard to play? Try these video lessons and learn fast. | Correct




comments powered by Disqus
↑ Back to top | Tablatures and chords are parodies/interpretations of the original songs. You may use it for private study, scholarship, research or language learning purposes only