» » »

Green Day, All By Myself Tabs (ver.4)

Artists:  A B C D E F G H I J K L M N O P Q R S T U V W X Y Z # 

All By Myself Tabs (ver.4)

Green Day Tabs
 Rating:
4/5 (4 votes)
All By Myself lessons Tabs too difficult? Try these video lessons and learn fast
1
                #------------------------------------------------------------------------------##

Here's your one only anthem on masturbation.


1st Part:


E-|-2----2----2----2----3----3----3----3--------------------------------------|
B-|---3----3----3----3----3----3----3----3------------------------------------|
G-|---------------------------------------------------------------------------|
D-|---------------------------------------------------------------------------|
A-|---------------------------------------------------------------------------|
E-|---------------------------------------------------------------------------|
                                                                               

2nd Part:                                                                               


E-|-4----4----4----4----5----5----5----5--------------------------------------|
B-|---5----5----5----5----5----5----5----5------------------------------------|
G-|---------------------------------------------------------------------------|
D-|---------------------------------------------------------------------------|
A-|---------------------------------------------------------------------------|
E-|---------------------------------------------------------------------------|


	(Smail3.1.28.1 #3) id m0s2B2b-00058CC; Fri, 21 Apr 95 06:14 WET DST
	id AA23597; Fri, 21 Apr 1995 06:14:02 +0100
	id VAA06046; Thu, 20 Apr 1995 21:49:59 -0700
Status: O





1st Part:


E-|-2----2----2----2----3----3----3----3--------------------------------------|
B-|---3----3----3----3----3----3----3----3------------------------------------|
G-|---------------------------------------------------------------------------|
D-|---------------------------------------------------------------------------|
A-|---------------------------------------------------------------------------|
E-|---------------------------------------------------------------------------|
                                                                               

2nd Part:                                                                               


E-|-4----4----4----4----5----5----5----5--------------------------------------|
B-|---5----5----5----5----5----5----5----5------------------------------------|
G-|---------------------------------------------------------------------------|
D-|---------------------------------------------------------------------------|
A-|---------------------------------------------------------------------------|
E-|---------------------------------------------------------------------------|
            
Submit corrections

comments powered by Disqus
↑ Back to top | Green Day Tabs for All By Myself. Lyrics for acoustic guitar and electric guitar. 1 Tablatures and chords are parodies/interpretations of the original songs. You may use it for private study, scholarship, research or language learning purposes only