>
 >
99 Revolutions

99 Revolutions Guitar Tabs

Green Day - 99 Revolutions chords, tabs, tablatures, lyrics

Guitar lessons | Add/correct | Request | Top 50 tabs Artists:  A B C D E F G H I J K L M N O P Q R S T U V W X Y Z 0-9

99 Revolutions Guitar Tabs – Green Day

CD, Sheet music, Poster

Do you like 99 Revolutions? Share with your friends now
Bass TabsChordsTabsUkulele
Green Day
Tre!
palm mute - *
let ring - ~~



Introduction 1
Lead part 
e|-----------------------------------------------------|
B|-----------------------------------------------------|
G|-5555555555555555-12121212121212121212121212121212---|
D|------------------10101010101010101010101010101010---|
A|--------------------------tens-&-twelves-------------|
E|-----------------------------------------------------|..

AlL IN


Introduction 2
Lead part
e|----------------------------------------------------------------------------------------|   |-----|
B|-13~-13-15~-13-13-13---12~-12-13~-12-12-12---10~-10-11~-10-10-10/--12~-12-13~-12-12-12--|   |-13~~|
G|-12~-12-12~-12-12-12---12~-12-12~-12-12-12---10~-10-10~-10-10-10/--12~-12-12~-12-12-12--|x2 |-----|
D|----------------------------------------------------------------------------------------|x2 |-----|
A|----------------------------------------------------------------------------------------|   |-----|
E|----------------------------------------------------------------------------------------|   |-----|
Introduction 2
Rhythm part
e|-----------------------------------------------------------------------------------------|
B|-----------------------------------------------------------------------------------------|
G|---5-5-5-5-5-5-5-5-----------------------------------------------------------------------|
D|---5-5-5-5-5-5-5-5-------5-5-5-5-5-5-5-5-------3-3-3-3-3-3-3-3-------5-5-5-5-5-5-5-5-----|x2
A|---3-3-3-3-3-3-3-3-------5-5-5-5-5-5-5-5-------3-3-3-3-3-3-3-3-------5-5-5-5-5-5-5-5-----|x2
E|-------------------------3-3-3-3-3-3-3-3-------1-1-1-1-1-1-1-1-------3-3-3-3-3-3-3-3-----|




Verse 1                                            1st, 2nd & 3rd Ending
e|------------------------------------------------|--------------------|
B|------------------------------------------------|--------------------|
G|-5-5-5-5-5-5-5-5--------------------------------|-5-5-5-5-5-5-5-5-5~~|
D|-5-5-5-5-5-5-5-5-5-5-5-5-5-5-5-5-3-3-3-3-3-3-3-3|-5-5-5-5-5-5-5-5-5~~|
A|-3-3-3-3-3-3-3-3-5-5-5-5-5-5-5-5-3-3-3-3-3-3-3-3|-3-3-3-3-3-3-3-3-3~~|
E|-----------------3-3-3-3-3-3-3-3-1-1-1-1-1-1-1-1|--------------------|..
   * * * * * * * * * * * * * * * * * * * * * * * *  *   * *   *   *
 4th Ending
e|-------------------------------------|
B|-------------------------------------|
G|-------------------------------------|
D|-5~-5-5-5~-5-5-5~-5-5-5~-5-5-5~5~5~5~|
A|-5~-5-5-5~-5-5-5~-5-5-5~-5-5-5~5~5~5~|
E|-3~-3-3-3~-3-3-3~-3-3-3~-3-3-3~3~3~3~|
      * *    * *    * *    * *


Chorus 1
e|-------------------------------------------------------------------|
B|-------------------------------------------------------------------|
G|---5-5-5-5-5-5-5-5-5-5-5-5-5-5-5-5---------------------------------|
D|---5-5-5-5-5-5-5-5-3-3-3-3-3-3-3-3-3-3-3-3-3-3-3-3-5-5-5-5-5-5-5-5-|
A|---3-3-3-3-3-3-3-3-3-3-3-3-3-3-3-3-3-3-3-3-3-3-3-3-5-5-5-5-5-5-5-5-|
E|-----------------------------------1-1-1-1-1-1-1-1-3-3-3-3-3-3-3-3-|...
2nd part of chorus
e|---------------------------------------------------------------------|
B|---------------------------------------------------------------------|
G|---5-5-5-5-5-5-5-5-------------------------------------------------5~|x2
D|---5-5-5-5-5-5-5-5-5-5-5-5-5-5-5-5-3-3-3-3-3-3-3-3-5-5-5-5-5-5-5-5-5~|x2
A|---3-3-3-3-3-3-3-3-5-5-5-5-5-5-5-5-3-3-3-3-3-3-3-3-5-5-5-5-5-5-5-5-3~| 
E|-------------------3-3-3-3-3-3-3-3-1-1-1-1-1-1-1-1-3-3-3-3-3-3-3-3---|
                                                     *   * *   *   * 


                       ____________________________
                         PLAY INTRODUCTION PART 2 
                               ONE TIME ONLY     
     

                          ________________________
                                PLAY VERSE 1 

                         _________________________
                             PLAY CHORUS AGAIN X2


SOLO PART (EVERY 2ND GROUP OF BENDS IS QUICKER)
e|-----------------------------------------------------------------------------------------------|
B|-10-10-10~~--12-12-12~~--14-14-14~~--16-16-16~~--18-18-18~~--16-16-16~~--14-14-14~~--16~~--15~~|
G|-12b12b12b~--14b14b14b~--16b16b16b~--18b18b18b~--20b20b20b~--18b18b18b~--16b16b16b~--18b~--17b~|
D|-----------------------------------------------------------------------------------------------|
A|-----------------------------------------------------------------------------------------------|
E|-----------------------------------------------------------------------------------------------|



''WE LIVE IN TROUBLED TIMES''
e|---------|---------------------------|
B|---------|-first ending--------------|
G|---------|---------------------------|
D|--3------|-5-5-555-5-5-5-5-5-5-5-----|
A|--3-(X32)|-5-5-555-5-5-5-5-5-5-5-----|
E|--1------|-3-3-333-3-3-3-3-3-3-3-----|                  
2nd ending
e|-------------------------------------|
B|-------------------------------------|
G|-------------------------------------|
D|-5~-5-5-5~-5-5-5~-5-5-5~-5-5-5~5~5~5~|x2
A|-5~-5-5-5~-5-5-5~-5-5-5~-5-5-5~5~5~5~|
E|-3~-3-3-3~-3-3-3~-3-3-3~-3-3-3~3~3~3~|
      * *    * *    * *    * *




                __________________________________
                      DRUMS..THEN BASS..THEN:
          

                  _______________________________
                  PLAY WHOLE INTRODUCTION 1, ONCE


                __________________________________
                       PLAY CHORUS AGAIN X2


                 _________________________________
                  PLAY INTRODUCTION PART 2 TWICE



''9, 9, TO 1''
e|-----------------------------------------------------|
B|-----------------------------------------------------|
G|--5~------------------5~---4~------------------------|
D|--5~---5~---3~---5~---5~---5~---3~---5~--------------|
A|--3~---5~---3~---5~---3~---5~---1~---5~--------------|
E|-------3~---1~---3~--------3~---1~---3~--------------|


''YEAHHHHH''
e|--------------------------------------------------------|---------------------------|
B|--------------------------------------------------------|---------------------------|
G|-5-5-5~--------5-5-5~--------5-5-5~--------5-5-5~-------|---------5-5-5-5-5~--------|
D|-5-5-5~-5-5-5~-5-5-5~-5-5-5~-5-5-5~-5-5-5~-5-5-5~-5-5-5~|5~-------5-5-5-5-5~--------|
A|-3-3-3~-5-5-5~-3-3-3~-5-5-5~-3-3-3~-5-5-5~-3-3-3~-5-5-5~|5~-------3-3-3-3-3~--------|
E|--------3-3-3~--------3-3-3~--------3-3-3~--------3-3-3~|3~-------------------------|


DONE

CHEERS PLEASE RATE AND COMMENT





Comments


Popular Green Day tabs & chords
Bab's Uvula Who? Bass Tabs
Carpe Diem Bass Tabs
Christians Inferno 2 Bass Tabs
8th Avenue Serenade Chords
American Eulogy Chords
Having A Blast Chords
Body Odor 1 Tabs
Haushinka Tabs
Knowledge 1 Tabs
Panic Song Tabs


Song lyrics



↑ Back to top | Tablatures and chords are parodies/interpretations of the original songs. You may use it for private study, scholarship, research or language learning purposes only
© 2014 AZChords.com Contact us | Privacy policy | DMCA | Add/correct tabs | Request tabs | Top 50 tabs