» » »

86 Bass tabs (ver.2)

Artists:  A B C D E F G H I J K L M N O P Q R S T U V W X Y Z # 

86 Bass tabs (ver.2)

Green Day
Rating:
0/5 (0 votes)

Tabs too difficult? Try these video lessons and learn fast.
                the other was was good i put in a few tweeks and made it easier to read
intro
|-----------------------------------------|
|-----------------------------------------|
|-----------------------------------44-55-|
|-0-00-000-4-44-444-5-55-555--55-77-------|

|------------------------------------------|
|---6h7-777--------------------------------|
|-7----------------------------------44-55-|
|-----------4-44-444-5-55-555--55-77-------|

verse
|-------------------------------------------------------------------------|
|-------------------------------------------------------------------------|
|--------------------2-22222-2-222222-0-0000000-00000000----------------0-|
|-0-0000000-00000000-------------------------------------0-00000-0-0000---|

|--------------------------------------------------------------------------|
|--------------------------------------------------------------------------|
|--------------------2-2-1h2-2-2-222222-0-0000000-00000000-----------------|
|-0-0000000-00000000---------------------------------------0-00000-0-00000-|

pre chorus
|--------------------------------------------------------------------|
|--------------------------------------------------------------2-1-2-|
|-2-2-222-2-222222-0-0-000-0-000000-2-2-222-2-222222-0-0-000-0-------|
|--------------------------------------------------------------------|

chorus
|-----------------------------------------|
|-----------------------------------------|
|-----------------------------------44-55-|
|-0-00-000-4-44-444-5-55-555--55-77-------|

|------------------------------------------|
|---6h7-777--------------------------------|
|-7----------------------------------44-55-|  (X3)
|-----------4-44-444-5-55-555--55-77-------|

bridge
|--------------------------------------------------00-22-|
|-------------1h2-2-1---------------------00-22-44-------|
|-2-2-222-0-0---------2--2-2-222-00-22-44----------------|
|--------------------------------------------------------|

outro
|---------------|
|---------------|
|---------------|
|-7-7-777-5////-|

structure
intro
verse
chorus
verse
chorus
instrumental chorus
bridge
chorus
outro
            
Tabs too difficult? Try these video lessons and learn fast.


comments powered by Disqus
↑ Back to top | Tablatures and chords are parodies/interpretations of the original songs. You may use it for private study, scholarship, research or language learning purposes only